PrimaNota.ru - самый крупный в мире бесплатный архив песенных текстов, аккордов, табулатур и нот


Antimatter - Paranova - таба, видео

Регистрация Запомнить меня
Войти через:  Facebook Google Twitter Vk Yandex Mail.ru

Antimatter - Paranova - таба, видео

Печатать
Просмотров: 405
Уроки эстрадного вокала в Санкт-Петербурге
Авторы музыки: Mick Moss
Авторы текста: Mick Moss
main thing
e||--------------------|
b||--------------------|
g||-------0---------0--|
D||---4---------4------|
A||-2---2-----3---3----|
E||--------------------|

1 chorus

e||----------------------------|
b||----------------------------|
g||-------0---------0--------0-|
D||---4---------4--------4-----|
A||-2---2-----3---3----2---2---|
E||----------------------------|

2 chorus
appears 2 guitar
e||----------------|
b||----------------|
g||--4--4--2-4-4---|
D||--4--4--4-4-4---|
A||--2--2--2-2-2---|
E||----------------|
   p.m.------------|


e||--------------------------|
b||--------------------------|
g||--4----4----5----5--------|
D||--4----4----5----5-5----5-|
A||--2----2----3----3-5----5-|
E||-------------------3----3-|

e||-----------------------------------------|
b||-----------------------------------------|
g||-4-4-4-4-4-4-4--5-5-5-5------------------|    //listen to the song :)
d||-4-4-4-4-4-4-4--5-5-5-5--5-5-5-5-5-5-5-5-|
a||-2-2-2-2-2-2-2--3-3-3-3--5-5-5-5-5-5-5-5-|
e||-------------------------3-3-3-3-3-3-3-3-|

<>
smth like this
e||-----0------0------0------0---------|
b||------0------0------0------0--------|
g||-4-4----4-4----5-5----------0-------|
D||-4-4----4-4----5-5----5-5-----5-5-5-|
A||-2-2----2-2----3-3----5-5-----5-5-5-|
E||----------------------3-3-----3-3-3-|

then

e||-----------------------|
b||-----------------------|
g||--4---4/5-7--5---------|
D||----------------5--7-4-|
A||--2---2/3-5--3---------|
E||----------------3--5-2-|

at the end appears riff from second chorus
Добавлено: 08.07.2013
Другие материалы по этой песне:
  • Аккорды и текст

Страница создана 08.07.2013
http://primanota.ru/antimatter/paranova-chords.htm
Привет, Гость.
Предлагаем пройти революционный курс по гитаре.
Подарок от PrimaNota.Ru, забирай!