PrimaNota.ru - самый крупный в мире бесплатный архив песенных текстов, аккордов, табулатур и нот


Antimatter - Comrades - таба, видео

Регистрация Запомнить меня
Войти через:  Facebook Google Twitter Vk Yandex Mail.ru

Antimatter - Comrades - таба, видео

Печатать
Просмотров: 65
--------------------------------------------------------------------------
                          COMRADES - Antimatter
--------------------------------------------------------------------------
Tab by: Wehmutshall
                                                           
Intro                                                             2x
e|-3--------------|-----3-------|-1---------------|---------0-----||
B|-------0------1-|-------1-----|-------0-----1---|---1-----------||
G|-----0---0------|---------0---|-----0---0-----2-|-----2-------0-||
D|----------------|-------------|-----------------|-------0-------||
A|----------------|-------------|-----------------|---------------||
E|-1---------1----|---1-------1-|-1---------1-----|-1-------------||

e|-----------------|---------0-------|-------0---------|-------------0-|
B|-------1p0-----0-|-------0---0---0-|-1-------0h1-----|-----1---------|
G|-----2-----2-----|-------------0---|-----2-------2---|---2-----2-----|
D|---2---------2---|---0-------------|---3-------------|-3---------3---|
A|-0---------------|-----2-----------|-----------------|---------------|
E|-----------------|-3---------------|-1-------------1-|---------------|

e|-----------------|---------0-----0-|-------0---------|-----0---------|
B|-------1p0-----0-|-------0---0-----|-1-------0h1-----|---------------|
G|-----2-----2-----|-------------0---|-----2-------2---|---2---------0-|
D|---2---------2---|---0-------------|---3-------------|-3-------------|
A|-0---------------|-----2-----------|-----------------|---------------|
E|-----------------|-3---------------|-1-------------1-|---------------|


Verse
e|-3---------------|----3---------|-1-----1-------0-|-------0------------|
B|-------1-0-----1-|--------1-----|-----------0-----|-1-------1----------|
G|-----0-----0-----|------0---0---|-----0-----------|-----2-----0-2------|
D|-----------------|--------------|-----------------|---3----------------|
A|-----------------|--------------|-----------------|--------------------|
E|-1-----------1---|------------1-|-1-----------1---|--------------------|

e|-----------------|-----------------|-------0---------|-----------------|
B|-------1-------1-|p0-----0-----0---|---------1-----1-|p0-----0---------|
G|-----2-----2-----|---2-----2-----2-|-----2-------2---|---2-------2-----|
D|---2-------------|-----2-----2-----|---2-------2-----|-----2---2---2-0-|
A|-0-----------0---|-----------------|-0---------------|-----------------|
E|-----------------|-----------------|-----------------|-----------------|

e|-3---------------|---------------|-1-----1-------0-|-------0-----------|
B|-------1---0-----|-1-----1-----0-|-----0-----0-----|-1---------1-------|
G|-----0-----------|---2-----------|---0-------------|-------------0-----|
D|---------------3-|-----3---------|-----------------|---3-----------0---|
A|-----------------|---------------|-----------------|-------------------|
E|-1-----------1---|---------------|-1-----------1---|-------------------|


Chorus
e|-----------------|---------0-------|-------0---------|--------------|
B|-------1p0-----0-|-------0---0---0-|-1-------0h1-----|-----1--------|
G|-----2-----2-----|-------------0---|-----2-------2---|---2------2---|
D|---2---------2---|---0-------------|---3-------------|-3----------3-|
A|-0---------------|-----2-----------|-----------------|--------------|
E|-----------------|-3---------------|-1-------------1-|--------------|

e|-----------------|---------0-----0-|-------0---------|--------------|
B|-------1p0-----0-|-------0---0-----|-1-------0h1-----|--------------|
G|-----2-----2-----|-------------0---|-----2-------2---|---2----------|
D|---2---------2---|---0-------------|---3-------------|-3------------|
A|-0---------------|-----2-----------|-----------------|--------------|
E|-----------------|-3---------------|-1-------------1-|--------------|

                                    2x
e|----------------|---------0-------||
B|---------0------|-----------1-----||
G|-------0---0----|-------2-----2---||
D|-----2-------0--|-----3---------3-|| 
A|---2------------|---3-------------||
E|-0--------------|-1---------------||

e|-----------------|---------0-------|-------0--------|
B|---------0-------|-----------0-----|----------------|
G|-------0---0---0-|-------2-----2---|-----2---2------|
D|-----2-------0---|-----3-----------|---3-------3----|
A|---2-------------|---3-------------|-3-----------3--|
E|-0---------------|-1-------------1-|----------------|


Solo section
As backing play Chorus pattern with messier picking or the chords Am, G, F, Em, F

e|-----------------|-------------------|-------------|----------------|--------5\1-1-|
B|-----------------|-------------------|-------------|----0h1p0-------|--------------|
G|-2/4---4-4/5---5-|-5/7-X-7/9-\-5-7-5-|----2p0h2----|----------2---0-|--------------|
D|-----------------|-------------------|-------------|------------3---|-2------------|
A|-----------------|-------------------|-------------|----------------|--------------|
E|-----------------|-------------------|-------------|----------------|--------------|

e|-------------------|------------|-------------|--------------|------------------|
B|-----3-0-----------|------------|-------------|------5-------|------5h6p5-------|
G|-----------5\4-2p0-|-0h2-2------|---------2/5-|-4----------2-|------------7-5-4-|
D|-------------------|------------|-------------|--------------|------------------|
A|-------------------|------------|-------------|--------------|------------------|
E|-------------------|------------|-------------|--------------|------------------|

e|---------3/5-|--------10\7-|-7---------7-|-8----7-5-0-----|-------------5h8p5---|
B|-------------|-------------|-------------|--------------3-|-1---3-1-5-8-------8-|
G|---------0-2-|---------7\4-|-4---------4-|-5----4-2-------|---------------------|
D|-------------|-------------|-------------|----------2---0-|-----0---------------|
A|-------------|-------------|-------------|----------------|-3-----3-------------|
E|-------------|-------------|-------------|----------------|---------------------|

e|-5-----5h3-5-----5-|-----------------|-------8\7/8-------|-5---7---8-3/5-8/10-5-|
B|-------------------|-----8p5-6-5-----|-----------------5-|---5---5--------------|
G|-------------------|-------------7\5-|-5-----------------|-----------2---7----2-|
D|-------------------|-----------------|-------7\5/7-------|----------------------|
A|-------------------|-----------------|-------------------|----------------------|
E|-------------------|-----------------|-------------------|----------------------|

e|---------5--8-7-|---8-------13/15----|---13---12-10/12--8---|-------------12-10-|
B|---------5-10-8-|---5-------15/17----|---15---13-12/13-10---|----------10-13-12-|
G|----------------|--------------------|----------------------|-------------------|
D|----------------|--------------------|----------------------|-------------------|
A|----------------|--------------------|----------------------|-------------------|
E|----------------|--------------------|----------------------|-------------------|

e|---------------10/12----|-----------------|---7----8--7--5\3-|-3/5--------------|
B|---------10/13-------10-|-----------------|---5----8--5------|------------------|
G|----------------7-------|-----------------|--------------5\4-|-4/5--------------|
D|---------10-----------7-|-----------------|------------------|------------------|
A|------------------------|-----------------|------------------|------------------|
E|------------------------|-----------------|------------------|------------------|

e|-----8-7-----8-|-7----5-3------|---------------|
B|------------10-|-8----6-5----3-|-1----3-1------|
G|---------------|---------------|------0-2------|
D|---------------|-------------3-|-2-------------|
A|---------------|---------------|---------------|
E|---------------|---------------|---------------|


Bridge 
Play F, G, F, G, F chords


Outro
e|-----------------|---------0-------|-------0---------|-------------0-|
B|-------1p0-----0-|-------0---0---0-|-1-------0h1-----|-----1---------|
G|-----2-----2-----|-------------0---|-----2-------2---|---2-----2-----|
D|---2---------2---|---0-------------|---3-------------|-3---------3---|
A|-0---------------|-----2-----------|-----------------|---------------|
E|-----------------|-3---------------|-1-------------1-|---------------|

e|-----------------|---------0-----0-|-------0---------|-----0---------|
B|-------1p0-----0-|-------0---0-----|-1-------0h1-----|---------------|
G|-----2-----2-----|-------------0---|-----2-------2---|---2-----------|
D|---2---------2---|---0-------------|---3-------------|-3-------------|
A|-0---------------|-----2-----------|-----------------|---------------|
E|-----------------|-3---------------|-1-------------1-|---------------|

e|-3--------------|-----3-------|-1-----1-------0-|-------0------------|
B|-------0-----1--|-------1-----|-----------0-----|-1---------1--------|
G|-----0---0------|---------0---|-----0-----------|-----2-------0-2----|
D|----------------|-------------|-----------------|---3----------------|
A|----------------|-------------|-----------------|--------------------|
E|-1---------1----|---1-------1-|-1-----------1---|--------------------|


Outro solo
e|----------------|-------------------|-------------|---7b---5p3-5h8-5---|
B|----------8--8--|-8/10--------------|-------------|--------------------|
G|------7/9-------|-------------9p7-9-|-------------|--------------------|
D|----------------|-------------------|-------------|--------------------|
A|----------------|-------------------|-------------|--------------------|
E|----------------|-------------------|-------------|--------------------|

e|-------------|---------------------|------------------|----------------|
B|-------------|------8-7\3-3p0-3/5\-|-0----------1/3---|----------------|
G|-------------|---------------------|----------------2-|-----2p0-2------|
D|-------------|---------------------|------------------|----------------|
A|-------------|---------------------|------------------|----------------|
E|-------------|---------------------|------------------|----------------|
Добавлено: 11.02.2016
Другие материалы по этой песне:
  • Аккорды и текст

Страница создана 11.02.2016
http://primanota.ru/antimatter/comrades-chords.htm
Привет, Гость.
Предлагаем пройти революционный курс по гитаре.
Подарок от PrimaNota.Ru, забирай!