PrimaNota.ru - самый крупный в мире бесплатный архив песенных текстов, аккордов, табулатур и нот


Andy James - Separation - таба, видео

Регистрация Запомнить меня
Войти через:  Facebook Google Twitter Vk Yandex Mail.ru

Andy James - Separation - таба, видео

Печатать
Просмотров: 614
----------------------------------------------------------------------------- 
Separation-Andy James
-----------------------------------------------------------------------------
Tabbed by:jk41
E-mail:

Tuning: standard
One of the great solo metal guitarists of the modern era, one of his great
melodic pieces off his self titled album
enjoy

Im only tabbing the lead part as the clean guitar is in different tuning
    verse
e|--------------------------------------------------------------------------|
B|--------------------------------------------------------------------------|
G|-----------------------------------------10-9-----7-h9p7\5----------------|
D|-------/10-7~--\5-3-5------------10----7--------7-----------------7-------|
A|-5-7-8----------------5-5------8----8--------------------------7----------|
E|--------------------------------------------------------------------------|

e|---------------------------------------------------------13-12------------|
B|------------------------------------------10-------13----------13---------|
G|---------13----15-------10-12brp10--------------10----12----------12-10---|
D|-9-10-12----14----12~--------------12--12----12---------------------------|
A|--------------------------------------------------------------------------|
E|--------------------------------------------------------------------------|
                pre chorus
e|--------------------------------------------------------------------------|
B|-13-----------10--------8~---10--------8-13-13/15\10-8---10--------8------|
G|----9b-r-----------9-10-----------9-10------------------------9-10---10-9-|
D|-----------------7--------------7---------------------------7-------------|
A|--------------------------------------------------------------------------|
E|--------------------------------------------------------------------------|

e|------------------------------------------------------13-----13-15-/17-20-|
B|---------------6-------------11--------------11---/17-----15--------------|
G|-10-7----5-7/9---9\7-5-12/14----14\12-10-/14------------------------------|
D|-------7------------------------------------------------------------------|
A|--------------------------------------------------------------------------|
E|--------------------------------------------------------------------------|

e|--15-13/17-------------------------131713--1513--13----13-----------------|
B|-----------------------------131517------17----17--1517--17131513---------|
G|-----------------------141517------------------------------------171514---|
D|-----------------141517------------------------------------------------17-|
A|-----------131517---------------------------------------------------------|
E|--------------------------------------------------------------------------|
                              Chorus(w/wah)
e|----------------------20~-------------------------------------------------|
B|----------------17-18-----------------------------------10/13~-13-11-10---|
G|------------17-------------/14--14-12-10-9-10---------10----------------12|
D|-15---14-15-----------------------------------10---/12--------------------|
A|--------------------------------------------------------------------------|
E|--------------------------------------------------------------------------|

e|--------/17--15-13-15---13-12-13--12-13-12br---------13-15----------------|
B|-10------------------------------------------15---/14-----12-10/12--------|
G|----10--------------------------------------------------------------------|
D|--------------------------------------------------------------------------|
A|--------------------------------------------------------------------------|
E|--------------------------------------------------------------------------|

e|-----------------------------------------------/17--15-13-15--13-12-13--12|
B|-----------------------10/13-13-11-10----10-------------------------------|
G|-/14-12-10-9-10------10---------------12----10----------------------------|
D|---------------12--12-----------------------------------------------------|
A|--------------------------------------------------------------------------|
E|--------------------------------------------------------------------------|

e|-13-12br---------10-------------------------------------------------------|
B|---------15--13b----13-10-11-10-------------------------------------------|
G|--------------------------------12-10-9-10-9------------------------------|
D|---------------------------------------------12-10-12~~~~-----------------|
A|--------------------------------------------------------------------------|
E|--------------------------------------------------------------------------|
2nd verse
e|--------------------------------------------------------------------------|
B|--------13-10--h11p10-----------------------------------13----------------|
G|-7-9-10---------------12-10-----10-12-/14----10-12\9/10----------17-------|
D|-----------------------------12-----------12-----------------/15----15----|
A|--------------------------------------------------------------------------|
E|--------------------------------------------------------------------------|

e|----------15-17----15-----------------------------------------------------|
B|----18----------18----17b-r17--/17-13----13-15----------------------------|
G|-14----17-----------------------------14-------12-10-10h12-12-------------|
D|--------------------------------------------------------------12----------|
A|--------------------------------------------------------------------------|
E|--------------------------------------------------------------------------|

e|--------------------------------------------------------------------------|
B|----------------------------------------6---------------------------------|
G|-10h12p10\9-10---9h10p9\7-9---7h9p7\5-----7---------------7/9-----9/10----|
D|--------------------------------------7-------10-----10----------------10-|
A|-------------------------------------------------8\7----8------12---------|
E|--------------------------------------------------------------------------|
                                  pre-chorus
e|-------10-12-/15-17/20-22-24b---------------------------------------------|
B|-13-----------------------------22----------20---22----------20\17br------|
G|----12--------------------------------21-22------------21-22-------19p17-17
D|-----------------------------------19---------------19--------------------|
A|--------------------------------------------------------------------------|
E|--------------------------------------------------------------------------

e|--------------------------------------------------------------------------|
B|--------------------------------------------------------------------------|
G|---------------------------17--17-19--------------------------------------|
D|-----17----15h17----14--15------------------------------------------------|
A|-/15----15-------17-------------------------------------------------------|
E|--------------------------------------------------------------------------|

*******************************

| /   slide up
| \   slide down
| h   hammer-on
| p   pull-off
| ~   vibrato
| +   harmonic
| x   Mute note
| b   Bend
| pb  Pre-bend
| br  Bend release
| pbr Pre-bend release
| brb Bend release bend

************************************
Добавлено: 16.12.2013
Другие материалы по этой песне:
  • Аккорды и текст

Страница создана 16.12.2013
http://primanota.ru/andy-james/separation-chords.htm
Привет, Гость.
Предлагаем пройти революционный курс по гитаре.
Подарок от PrimaNota.Ru, забирай!