PrimaNota.ru - самый крупный в мире бесплатный архив песенных текстов, аккордов, табулатур и нот


Andy James - Shine On Through - таба, видео

Регистрация Запомнить меня
Войти через:  Facebook Google Twitter Vk Yandex Mail.ru

Andy James - Shine On Through - таба, видео

Печатать
Просмотров: 484
Уроки эстрадного вокала в Санкт-Петербурге
----------------------------------------------------------------------------
                Shine on through - Andy James
----------------------------------------------------------------------------
Tabbed by: Joel Keane (jk41)
Email:

Tuning:standard
played on a 7 string, here is a 6 string tab from watching the youtube clip
and listening to it. It's not complete but its a fair chunk of it, i will
continue to work it out and update it. Any help/feedback welcome
Clean guitar intro
e|----2------2-----2------2-----2------2-----2------2---|
B|---5-5---5--5---5-5---5--5---5-5---5--5---5-5---5--5--|
G|--4---4-4-4--4-4---4-4-4--4-4---4-4-4--4-4---4-4-4----|
D|-2-----2-------------------0-----0--------------------|
A|--------------2-----2-------------------0-----0-------|
E|------------------------------------------------------|

lead intro(on youtube/metal soloing techniques version)
e|------------------------------------------------------------------|
B|--------------------------------------------------12--10-9--------|
G|-x9/11~-\9-8-----------------------------------------------11-----|
D|-------------11-9--/13-13/14-14-14~-x6h7p6----7/9-------------9---|
A|-------------------------------------------9-7--------------------|
E|------------------------------------------------------------------|

e|---------------------------------------------|
B|-12/14~16--12\9--9brbr----------12-----------|
G|-----------------------11/13\9--11brbrbr-----|
D|---------------------------------------------|
A ---------------------------------------------|
E|---------------------------------------------|
Heavy riff/chorus backing
same chord progression as clean intro
e|------------------------------------------------------------------|
B|------------------------------------------------------------------|
G|------------------4-4--4--4-4-4---7-7--7--7-7-7-------------------|
D|-2-2--2--2-2-2----4-4--4--4-4-4---7-7--7--7-7-7----7-7--7--7-7-7--|
A|-2-2--2--2-2-2----2-2--2--2-2-2---5-5--5--5-5-5----7-7--7--7-7-7--|
E|-0-0--0--0-0-0----2-2--2--2-2-2---5-5--5--5-5-5----5-5--5--5-5-5--|

verse lead
im guessing the clean guitar is the same progression
e|--------------------------------------------------------------------------|
B|-------------/12-12-11-9/11-9h11p9p7----------9h10p9----------------------|
G|-/9-8--4~~-----------------------------11/13---------11-9-9h11p9-8-8br----|
D|----------------------------------------------------------------------9---|
A|--------------------------------------------------------------------------|
E|--------------------------------------------------------------------------|

e|---------------------------------------------------------------------------|
B|--------------------------------9h10p9----------------9h10p9---------------|
G|----------9~~--11b-(b)-11b-(b)---------11-9-11/13-13--------11-9--11-9-----|
D|-9-11--11------------------------------------------------------------------|
A|---------------------------------------------------------------------------|
E|---------------------------------------------------------------------------|

e|--------------------------------------------------------------------------|
B|---------------12-/14-17~12/14-12~-9br~---------------------12-12~-9-9~---|
G|-9h11p9-8--8h9--------------------------9h11p9-11-9-11/13-----------------|
D|--------------------------------------------------------------------------|
A|--------------------------------------------------------------------------|
E|--------------------------------------------------------------------------|

e|--------------------------------------------------------------------------|
B|-7-7~-5-5~--12-12-12\9-9-9-9\7-7-7-7\5-5-5/7-7-7/9-x------5~~----9brbrbr--|
G|-----------------------------------------------------4/6------------------|
D|--------------------------------------------------------------------------|
A|--------------------------------------------------------------------------|
E|--------------------------------------------------------------------------|

e|--------------------------------------------------------------------------|
B|-12-/16-\12--14/19-21x17/19--16h17p16-------------------------------------|
G|--------------------------------------18-16-14-16b-16b---13br\11/13-------|
D|--------------------------------------------------------------------------|
A|--------------------------------------------------------------------------|
E|--------------------------------------------------------------------------|

e|---------------------|
B|-/9b~~~--11brbrbr----|
G|---------------------|
D|---------------------|
A|---------------------|
E|---------------------|

Chorus, played with a harmony?
e|-11h12p11----------------------11h12p11----------------------------|
B|----------12----------------------------12-------------------------|
G|-------------11-11/13--9\8-8---------------11-11/13--13-13/16-16---|
D|-------------------------------------------------------------------|
A|-------------------------------------------------------------------|
E|-------------------------------------------------------------------|


e|-16-12-----12--------14-12-----12-----------------------------------------|
B|--------------------------------------------------------------------------|
G|-------16-----16-13--------16-----16-14-16-14-13-14-13h14p13-11-x11/13-13-|
D|--------------------------------------------------------------------------|
A|--------------------------------------------------------------------------|
E|--------------------------------------------------------------------------|

e|-----------------11h12p11----------------------11h12p11--------------------|
B|--------12----------------12----------------------------12-----------------|
G|-x9b~~--11brb----------------11-11/13--9\8-8---------------11-11/13-13-----|
D|---------------------------------------------------------------------------|
A|---------------------------------------------------------------------------|
E|---------------------------------------------------------------------------|

e|---------------------------------------------------------------------------|
B|-----------then some sweep picking-----------------------------------------|
G|-13/16-16------------------------------------------------------------------|
D|---------------------------------------------------------------------------|
A|---------------------------------------------------------------------------|
E|---------------------------------------------------------------------------|

thats all i got for now, but its a bit to work through, with the timing of
the slides and bends and the vibrato. i will endeavour to work thru more


************************************

| /   slide up
| \   slide down
| h   hammer-on
| p   pull-off
| ~   vibrato
| +   harmonic
| x   Mute note
| b   Bend
| pb  Pre-bend
| br  Bend release
| pbr Pre-bend release
| brb Bend release bend
Добавлено: 28.06.2013
Вам также может быть интересно:
Другие материалы по этой песне:
  • Аккорды и текст

Страница создана 28.06.2013
http://primanota.ru/andy-james/shine-on-through-chords.htm
Привет, Гость.
Предлагаем пройти революционный курс по гитаре.
Подарок от PrimaNota.Ru, забирай!