PrimaNota.ru - самый крупный в мире бесплатный архив песенных текстов, аккордов, табулатур и нот


Эндрю Йорк - 3 Delineations - Faire - таба, видео

Регистрация Запомнить меня
Войти через:  Facebook Google Twitter Vk Yandex Mail.ru

Эндрю Йорк - 3 Delineations - Faire - таба, видео

Печатать
Просмотров: 213
Title : 3 Delineations - Faire
Author : Andrew York
Transcribed by : Michael Neumann

This is one of my favorite pieces by Andrew. It's is very fresh and rhythmic.
Have fun :-) Michael

Drop D Tuning  (D A D G B E)

------0-----2--2h3----3p2--0---------------------------------------------------|
----3-------3---------3-------3-2-----0------0-----2---2h3----3p2--------------|
----------------------------------------00---------2---2h4----2-----4-2--0-----|
----------------------0--------------------0-------2----------2----------------|
---------------------------------------------------0----------0----------------|
------------0-------------------------5----------------------------------------|


-------------------------------------------------------------------------------|
-------------------0-------3----3----3p2---0---2-2h3---------------------------|
-----0-2-----0---0-----------------------------------------------0h4--4p2p0----|
---4-----4-----0---------------------2-----0---2-2h4------0h2h4-------------4--|
---0---------------------------------0-----------------------------------------|
---0---------5----------5-----0------------------------0-----------------------|


----0---2--2h3---3p2-0---------------------------------------------------------|
--3-----3--------3-----3p2-----0-----0------2--2h2---3p2-----------------------|
---------------------------------0----------2--2h4---2----4-2-0-----0-2--------|
-----------------0-----------------0--------2--------2------------4------4-----|
--------------------------------------------0--------0------------0------------|
--------0----------------------5----------------------------------0------------|


-------------------------------------------------------------------------------|
---------0-----3---3-----3p2--0---2--3---------------------------3p2----0--0---|
---0---0----------------------------------------------------------------0--0---|
-----0-------------------2----0---2--4------0h2h4--4h2h0----2-0---------0--0---|
-------------------------0--------------------------------4--------------------|
---5---------5---0----------------------00------------------------------5------|


---------------------------------------------0------0-------2---2-------2------|
-------0-----2-----2------3--3-------3----------------------3---3-------3------|
-------0-----2-----2-----------------0-------2------2-------2---2----2---------|
-----0-------2-----2------4--4----4-------------------------0------0-------0---|
----------------0-----0---2-----2-------22-------4-----0-----------------------|
--5-------5--------------------------------------------------------------------|


---3-----3------0--0--------0--------------------------------------------------|
---0-----0------2--2------3---0-2-2p0-----0----0--0------0-----2----2----------|
---0-----0------2--2----2--------------2-------0--0------0-----2----2----------|
------2-----0----------------------------------0--0----0-------2----2----------|
----------------0-----0-------------------------------------------0----0-------|
-----------------------------------------------5-----5------5------------------|


-------------------0-----0-------2---2--------3-----0---------0----------------|
--3--3------3--------------------3---3--------3-----2-----3-2-----3---0--------|
------------0------2-----2-------2---2-----2--------2---------------2---0--2---|
--4--4----4----------------------0------00-------0-----------------------------|
--2-----2------2------4-----0--------------------------0-----------------------|
------------------------------------------------------------------0------------|


----------------0----2---2h3---3p2p0-------------------------------------------|
--------------3------3---3-----3-------3--2---0-----0----2--2h3---3p2----------|
-----0------------------------------------------0--------2--2h4---2---4-2-0----|
--4----2--0--------------------0------------------0------2--------2------------|
---------------------------------------------------------0--------0------------|
------------0--------0------------------------5--------------------------------|


-------------------------------------------------------------------------------|
----------------------0-----3----3----3p22--0--2----2h3------------------------|
-------0-2------0---0---------------------------------------------0h4--4p2p0---|
----4------4------0-------------------2-----0--2----2h4----0h2h4---------------|
----0---------------------------------0----------------------------------------|
----0-----------5---------5----0-------------------------0---------------------|


-----------0----2--2h3---3p2p0-------------------------------------------------|
---------3------3--3-----3------3-2---0------0---2--2h3---3p2------------------|
----------------------------------------00-------2--2h4---2----4-2-0-----0-2---|
--4----------------------0-----------------0-----2--------2-----------4--------|
-------------------------------------------------0--------0-----------0--------|
-------0--------0---------------------5-------------------------------0--------|


-------------------------------------------------------------------------------|
------------0-------3----3----3p2--0--2---2h3------------------------------3---|
------0---0--------------------------------------------------------------------|
-4------0---------------------2----0--2---2h4------0h2h4---4p2p0----2-0--------|
------------------------------0-----------------------------------4------------|
------5-----------5----0-------------------------0-----------------------0-----|


----------------------------------------------------0-----0-------2--2------2--|
-2----0--0------0------2---2------3--3-------3--------------------3--3------3--|
------0--0------0------2---2-----------------0------2-----2-------2--2----2----|
------0--0----0--------2---2------4--4-----4----------------------0-----0------|
-------------------------0---0----2-----22------2------4------0----------------|
------5-----5------5-----------------------------------------------------------|


-----3-----3--------0--0---------0---------------------------------------------|
-----0-----0--------2--2-------3----0-2-----------0--0-------0------2----2-----|
-----0-----0--------2--2-----2--------------------0--0-------0------2----2-----|
--0-----2-----0----------------------------^7--------------0--------2----2-----|
--------------------0-----0-------------------------------------------0-----0--|
--------------------------------------------------5------5------5--------------|


--------------------0----0-------2--2-------3-----0---------0------------------|
--3--3-------3-------------------3--3-------3-----2-----3-2-----3---0----------|
-------------0------2----2-------2--2-----2-------2---------------2---0-2---0--|
--4--4-----4---------------------0-----0-------0--------------------------4----|
--2------2------2------4----0-------------------------0------------------------|
----------------------------------------------------------------0--------------|


--------------7----7----5---------------00------2----2---3-----------------0---|
--------------5----5----3-----------------------5----5---0-----------0---------|
-----------------0-------------0------------------2-----------0----2-----------|
--2--0---------------------------4---0--------------------------5--------------|
--------------0--------------------0-------------------------------------------|
-----------------------------0------------------0-----------0-----------0------|


---0---0-------------------------------------------------------------7----7-5--|
---2---2----3---------2-3----------0---0-----2-----2--2h3---2--------5----5-3--|
-----0------4-------4--------------0---0-----2-----2--2h4---2-----------0------|
------------------4-----------2------0-----------2-----------------------------|
---0------------2-----------2------------------0---------------0-----0---------|
-----------------------------------5-------------------------------------------|


-------------0------2----2---3----------------0----0---0-----------------------|
--------------------5----5---0----------00---------2---2--3--------2-3---------|
----0------------------2----------0---2--------------0----4------4-------------|
------4---0-------------------------5--------------------------4----------2----|
--------0------------------------------------------0---------2----------2------|
--0-----------------0-----------0-----------0----------------------------------|


---------------------------------0-----2---2h3----3p2p0------------------------|
---0---0---2------2--2h3--2----3-------3---3------3------3-2-----0-----0----2--|
---0---0---2------2--2h4--2----------------------------------------0--------2--|
-----0---------2----------------------------------0------------------0------2--|
-------------0---------------0----------------------------------------------0--|
---5-----------------------------------0-------------------------5-------------|


-------------------------------------------------------------------------------|
---2h3---3p2---------------------------0------3----3-----3p2--0--2--2h3--------|
---2h4---2----4-2-0-----0-2-4----0---0-----------------------------------------|
---------2-----------4-------------0---------------------2----0--2--2h4--------|
---------0-----------0-----------------------------------0---------------------|
---------------------0-----------5----------5----0------------------------0----|


-------------------------------------------------------------------------------|
----------------------------3p2----0--0------0----2---2------3--3------3-------|
-----------------------------------0--0------0----2---2----------------0-------|
--0h2h4---4p2p0----2-0-------------0--0----0------2---2------4--4----4---------|
-----------------4----------------------------------0---0----2-----2-----2-----|
-------------------------0---------5----55-----5-------------------------------|


---0----0------2--2------2------3-----3---------0--0---------0-----------------|
---------------3--3------3------0-----0---------2--2-------3----0-2------------|
---2----2------2--2----2--------0-----0---------2--2-----2---------------------|
---------------0-----0------0------2------0--------------------------^7--------|
------4---0-------------------------------------0-----0------------------------|
-------------------------------------------------------------------------------|


-------------------------------------------------0----0------2--2------3-------|
-----0--0-----0-----2----2------3---3-------3----------------3--3------3-------|
-----0--0-----0-----2----2------------------0----2----2------2--2----2---------|
------------0-------2----2------4---4-----4------------------0-----0------0----|
-----------------------0---0----2------2------2-----4----0---------------------|
-----5----5------5-------------------------------------------------------------|


---0---------0-----------------------------|--------------------3---0----------|
---2-----3-2------3----0-------------------|---0---3-----3------3---1----------|
---2-----------------2---0---2----0--------|-----5-------4------0---0----------|
-------------------------------4----2--0---|-------------0---------------------|
------0------------------------------------|---------------------------3-------|
------------------0------------------------|---5-------------0-----------------|


-----------0-------------------------------------------------------------------|
-------------3-1----0-----3----1------------------------------------1-3--------|
---------0------------0----------0--------0-2-3-------------------3------------|
--0h2h3-----------------0----------2------------0----3----------0--------4-----|
--------------------------------------------------------0-1-3---1--------------|
--------------------3----------2----------1----------3-------------------0-----|


-----------------------0--2--3------5/7----5------0------------0---2/3----0----|
---------0---3----3-----------------------------8-----2-----3-------------2----|
-----------5-----------0--2--4-------------6----------0--------0---2/4---------|
-0----------------4-----------------------------------------4------------------|
----------------------------------------------0---------------------------0----|
---0-----5-----------0-----------2--------------------------0------------------|


-------------------------0-------------------------3---0-------------0---------|
-0-----3-------------------3-------0---3----3------3---1---------------3-1-----|
---2---0------------0--2-----5-------5------4------0---0-----------0-----------|
-------------4p2--4-------------------------0----------------0h2h3-------------|
-----------------------------------------------------------3-------------------|
----------0------------------------5------------0------------------------------|


----------------------------------------------------------------------1-1------|
---0-----3----1-----------------------------------1-3------------3-4----1------|
-----0----------0------0-2-3--------------------3-----------------------2------|
-------0----------2----------0----3-----------0---------4--0-----3-------------|
------------------------------------0-1-33----1--------------0---1---------0---|
---3----------2--------1----------3---------------------0----------------------|


---5---6-------6------6--------5-------5-------3-------2-------2----0----------|
---6---3-------3------4--------3-------3-------2-------3-------3----2----------|
---5---3-------3------5--------3-------3-------3-------2-------2----0----------|
------------5------------4----------3-------------2---------0----------2-------|
-------------------------------------------0--------0------------0-------0-----|
----------5--------0--------0-----5-----------------------0--------------------|


-----|----------------|----------------0------2---2h3---3p2p0------------------|
---3-|----------------|--------------3--------3---3-----3-----3-2--0-----------|
---2-|----2----------*|----2-----------------------------------------2-0-------|
---4-|------4--------*|------4--------------------------0----------------4-----|
-----|--------0-------|--------0-----------------------------------------------|
-----|--0-------0-----|--0-------0------------0--------------------5-----------|


----------------------0--------^12--^19---------|-|----------------------------|
--------------------0---------------------------|-|----------------------------|
------------------0-----------------------------|-|----------------------------|
---2-0---------------------^7-------------------|-|----------------------------|
---0-----4-2----0-------------------------------|-|----------------------------|
------------------------------------------------|-|----------------------------|
Добавлено: 23.02.2012
Другие материалы по этой песне:
  • Аккорды и текст

Страница создана 23.02.2012
http://primanota.ru/andrew-york/3-delineations-faire-chords.htm
Привет, Гость.
Предлагаем пройти революционный курс по гитаре.
Подарок от PrimaNota.Ru, забирай!