PrimaNota.ru - самый крупный в мире бесплатный архив песенных текстов, аккордов, табулатур и нот


Эндрю Йорк - Reflections - таба, видео

Регистрация Запомнить меня
Войти через:  Facebook Google Twitter Vk Yandex Mail.ru

Эндрю Йорк - Reflections - таба, видео

Печатать
Просмотров: 332
Авторы музыки: Andrew York

Reflections - Andrew York (1958-)

time signature= 3/4

Adagio

             |               |     |     |        |     |     |
E||----------2h-3h2h0---||---------------------|-----------------0--|
B||-------------------3-||---0--------0--3-----|--1--------0--------|
G||---------------------||*-----0-----------0--|-----0--------5-----|
D||---------------------||*--------7-----4-----|--2-----2-----------|
A||---------------------||---------------------|--0-----------------|
E||---------------------||---0-----------------|--------------------|

  |     |     |        |     |     |
-----------------0--|--2--------2/-5--3--|
--3--------0--3-----|--------3-----------|
--------2-----------|-----2--------------|
-----0--------------|--------------------|
--------------------|--2-----------------|
--3-----------------|--------------------|

  |        |      |        |     |     |         |     |    |
--2--2h3h2-0-------------|-----------------0--|--------------------|
--0---------------0---1--|--3--------3--------|--3-------------0h1-|
--0-------------0--------|--------4-----------|-----2--------------|
--------------4----------|-----2--------------|-----4-------4------|
-------------------------|--3-----------3-----|--3-----3-----------|
--0----------------------|--------------------|--------------------|

  |     |     |        |     |     |         |     |     |
--------------0--2--|--3-----------0--2---|--3--------2--0h2h0----|
--3--------3--------|-----0---------------|--1--1--------------3--|
--------0-----------|--------0------------|--0-----0--------------|
-----4--------------|--2--------2---------|-----------------------|
--2-----------------|---------------------|--0--------------------|
--------------------|---------------------|-----------------------|

  |     |     |        |     |     |
--0h-2-----------0--|--------------------|
--------3-----------|--3--------3-----1--|
-----------0--------|--------4-----------|
--------------4-----|-----2--------------|
--2-----------------|--3-----------3-----|
--------------------|--------------------|

                                                         R.H.
                                                         H.12
  |     |     |        |     |     |       |     |     |
---------------------|-------------------|----------------<0>--|
--0--------0---------|-----------0-------|-----------0---------|
--------2--------2---|--0-----0-----2----|--------0-----2------|
-----1-----------1---|--2--2--------4----|-----2--------4------|
--2-----------2------|-------------------|---------------------|
---------------------|--0----------------|--0------------------|

                    |Ending 1--------------  |Ending 2-------------
  |     |     |        |    |   |                |    |   |
--------------------|-----------2h-3h2h0-----||-----------7h8h7------|
-----------0--------|--0------------------3--||--0--------------10-8-|
--------0-----2--5--|--0--------------------*||--0-------------------|
-----2--------4-----|--2--------------------*||--2-------------------|
--------------------|------------------------||----------------------|
--0-----------------|--0---------------------||--0-------------------|

                              R.H.       R.H.
                              H.12       H.19
 |       |      |        |     |      |
------0------------7--|--5---------0---------|
----------------8-----|--7--7---------7------|
--9----------9--------|--7-------------------|
--10-----10-----------|-------<0>-------<0>--|
--0-------------------|----------------------|
----------------------|--7-------------------|

       R.H.                  R.H.
       H.12                  H.12
  |     |      |        |     |      |         |     |     |
-----0---------0------|-----0------------5--|--5--------0--------|
--8----------------8--|--7------------0-----|--6--6-----8--------|
--7---------7---------|--6---------6--------|--0-----0-----7--5--|
--9-------------------|-------<0>-----------|--------------------|
-------<0>------------|---------------------|--------------------|
--8-------------------|--7------------------|--6-----------------|

           R.H.
           H.12
  |     |      |        |     |     |         |     |     |
--0-----0------------|--------0--1--0------|-----0--1--3--5--5--|
--6--6---------------|-----3-----------1---|--3-----------5-----|
--5---------------5--|--3-----------0------|--2-----------------|
----------<0>--------|--0------------------|--0-----------------|
---------------------|--------------3------|--------------3-----|
--6------------6-----|--3------------------|--------------------|

                                R.H.
                                H.12
 |     |     |         |     |      |
--5--------0--------|--0-----0------------|
--6--6-----8--------|--6--6---------------|
--0-----0-----7--5--|--5---------------5--|
--------------------|-----------<0>-------|
--------------------|---------------------|
--6-----------------|--6------------6-----|

  |     |     |         |     |     |        |     |     |
--------0--1--0------|-----0--1--3--5--5--|--5--------0--------|
-----3-----------1---|--3-----------5-----|--6--6-----8--------|
--3-----------0------|--2-----------------|--0-----0-----7--5--|
--0------------------|--0-----------------|--------------------|
--------------3------|--------------3-----|--------------------|
--3------------------|--------------------|--6-----------------|

          R.H.
          H.12
  |     |      |       |     |     |          |     |      |
--0-----0-----------|------------------5---|---------------5/6----|
--6--6--------------|--3-----------3/6-----|--------6----6-----8--|
--5-----------------|-----2-----2----------|-----7-----7----------|
----------<0>-------|--0-----0-------------|----------------------|
--------------------|----------------------|----------------------|
--6------------6----|----------------------|--8-----8-------------|

                            R.H.
                            H.12
  |     |     |        |     |      |
-----------------0--|-----0------------0--|
--------------------|--6------------------|
--------7-----7-----|--5---------5--7-----|
-----5-----5--------|-------<0>-----------|
--------------------|---------------------|
--7-----7-----------|--6------------8-----|

 |     |     |         |     |      |         |     |     |
------------------55--|---------------5/6----|-----------------0--|
--3-----------3/6-----|--------6----6-----8--|--------------------|
-----2-----2----------|-----7-----7----------|--------7-----7-----|
--0-----0-------------|----------------------|-----5-----5--------|
----------------------|----------------------|--------------------|
----------------------|--8-----8-------------|--7-----7-----------|

       R.H.
       H.12
  |     |      |        |     |     |          |     |      |
-----0------------0--|------------------55--|---------------5/6----|
--6------------------|--3-----------3/6-----|--------6----6-----8--|
--5---------5--7-----|-----2-----2----------|-----7-----7----------|
-------<0>-----------|--0-----0-------------|----------------------|
---------------------|----------------------|----------------------|
--6------------8-----|----------------------|--8-----8-------------|

 |     |     |         |     |      |
-----------------0--|-----0------------0--|
--------------------|--6------------------|
--------7-----7-----|--5---------5--7-----|
-----5-----5--------|-------<0>-----------|
--------------------|---------------------|
--7-----7-----------|--6------------8-----|

       R.H.
       H.12
|     |     |          |     |     |        |    |     |
--------------------9--|--------------5--7--|-------5-----------|
--7-----------7h10-----|-----------0--------|-------7--5--8-----|
--7--------------------|-----9--------6-----|--7-------------6--|
--------9--------------|--------7-----------|--5----------9-----|
-----9-----9-----------|--0-----------------|-------------------|
--7--------------------|--------------------|--0----------0-----|

  |     |     |          |     |     |        |    |     |
-------------------9--|--------------5--77--|-------5-----------|
--7-----------7h10----|-----------0---------|-------7--5--8-----|
--7-------------------|-----9--------6------|--7-------------6--|
--------9-------------|--------7------------|--5----------9-----|
-----9-----9----------|--0------------------|-------------------|
--7-------------------|---------------------|--0----------0-----|

  |     |     |          |     |     |        |    |     |     
-------------------9--|--------------5--7--|-------5-----------||
--7-----------7h10----|-----------0--------|-------7--5--8-----||
--7-------------------|-----9--------6-----|--7-------------6--||
--------9-------------|--------7-----------|--5----------9-----||
-----9-----9----------|--0-----------------|-------------------||
--7-------------------|--------------------|--0----------0-----||

   |     |     |        |     |  |
--2--------0--------|------------------|
--3--3-----2--------|--2--3--2--0------|
--0-----0-----4--2--|--2--4--2--0------|
--------------------|--0---------------|
--------------------|------------------|
--3-----------------|--3---------------|

          |             |     |     |        |     |     |
----------2h-3h2h0---|---------------------|-----------------0--|
-------------------3-|--0--------0--3------|--1--------0--------|
---------------------|-----0-----------0---|-----0--------5-----|
---------------------|--------7-----4------|--2-----2-----------|
---------------------|---------------------|--0-----------------|
---------------------|--0------------------|--------------------|

  |     |     |        |     |     |
-----------------0--|--2--------2/-5--3--|
--3--------0--3-----|--------3-----------|
--------2-----------|-----2--------------|
-----0--------------|--------------------|
--------------------|--2-----------------|
--3-----------------|--------------------|

  |        |      |        |     |     |        |     |    |
--2--2h3h2-0-------------|-----------------0--|--------------------|
--0---------------0---1--|--3--------3--------|--3-------------0h1-|
--0-------------0--------|--------4-----------|-----2--------------|
--------------4----------|-----2--------------|-----4-------4------|
-------------------------|--3-----------3-----|--3-----3-----------|
--0----------------------|--------------------|--------------------|

  |     |     |        |     |     |        |     |     |
--------------0--2--|--3-----------0--2---|--3--------2--0h2h0----|
--3--------3--------|-----0---------------|--1--1--------------3--|
--------0-----------|--------0------------|--0-----0--------------|
-----4--------------|--2--------2---------|-----------------------|
--2-----------------|---------------------|--0--------------------|
--------------------|---------------------|-----------------------|

 |     |     |         |     |     |
--0h-2-----------0--|--------------------|
--------3-----------|--3--------3-----1--|
-----------0--------|--------4-----------|
--------------4-----|-----2--------------|
--2-----------------|--3-----------3-----|
--------------------|--------------------|

                                                         R.H.
                                                         H.12
  |     |     |        |     |     |       |     |     |
---------------------|-------------------|----------------<0>--|
--0--------0---------|-----------0-------|-----------0---------|
--------2--------2---|--0-----0-----2----|--------0-----2------|
-----1-----------1---|--2--2--------4----|-----2--------4------|
--2-----------2------|-------------------|---------------------|
---------------------|--0----------------|--0------------------|

  |     |     |        |
--------------------|---------------||
-----------0--------|--0------------||
--------0-----2--5--|--0------------||
-----2--------4-----|--2------------||
--------------------|---------------||
--0-----------------|--0------------||


------------------------------------------------------------------------------

Tablature Explanation              Tempo Beats      R.H.
                                   /---------\      H.12
                                    |   |   |
      / E-|--------|-------|-------|--------0---|---------|
      | B-|--------|-------|-------|------1-----|---------|
      | G-|--5h8---|--8p5--|--5/7--|----2-------|---------|
tuning| D-|--------|-------|-------|------------|---<0>---|
      | A-|--------|-------|-------|0-----------|---------|
      \ E-|--------|-------|-------|------------|---------|
           Hammer   Pull     Slur                Artificial
           on       off                          Harmonic
Добавлено: 25.06.2012
Другие материалы по этой песне:

Страница создана 19.06.2012
http://primanota.ru/andrew-york/reflections-chords.htm
Привет, Гость.
Предлагаем пройти революционный курс по гитаре.
Подарок от PrimaNota.Ru, забирай!