PrimaNota.ru - самый крупный в мире бесплатный архив песенных текстов, аккордов, табулатур и нот


Эндрю Йорк - 8 Discernments - Snowflight - таба, видео

Регистрация Запомнить меня
Войти через:  Facebook Google Twitter Vk Yandex Mail.ru

Эндрю Йорк - 8 Discernments - Snowflight - таба, видео

Печатать
Просмотров: 180
-------------------------------------------------------------
SNOWFLIGHT  - Written by A. York.  DENOUEMENT CD , 1994.
--------------------------------------------------------------
Transcribed by:  Brooke Aday  (baday12345@aol.com)   Submitted:  12/2002.
   
[measure 19 corrected 7 Aug 2003]

12/8 time.  Beautiful piece. VERY easy to play yet engaging, melodic and
worthwhile musically. Let that right hand fly.... with feeling
( <+ ==== -> represent volume swells low to high and high to low).  

Thanks to all the other song submitters whom I have copied from over the
years. Its been past due time for me to give at least one back...
maybe more. Hope you like.

------------------------------------------------------------------------------

1   /     /     /     /       /      /    /     / (througout)
e |-------------------------|-------------------------|
B |-----------------0-----0-|-----0-----0-----0-----0-|
G |-----0-----0---2-----2---|---0-----0-----0-----0---|
D |---0-----0---0-----0-----|-2-----2-----2-----2-----|
A |-3-----3-----------------|-------------------------|
E |-------------------------|-------------------------|

3
e |-----0-----0-----0-----0-|-----0-----0-----0-------|
B |---0-----0-----1-----1---|---0-----0-----0---------|
G |-------------------------|-------------------------|
D |-------------0-----0-----|-2-----2-----2-----2-----|
A |-3-----3-----------------|-------------------------|
E |-------------------------|-------------------------|

5
e |-----0-----0-----0-----0-|-----0-----0-----0-----0-|
B |---0-----0-----0-----0---|---1-----1-----0-----0---|
G |-------------0-----0-----|-2-----2-----0-----0-----|
D |-4-----4-----------------|-------------------------|
A |-------------------------|-------------------------|
E |-------------------------|-------------------------|
    <- =========================== +><+ ============ ->

7
e |-----0-----0-----0-----0-|-------------------------|
B |---0-----0-----1-----1---|----3------3-------------|
G |-------------------------|---2------2--------------|
D |-4-----4-----2-----2-----|-0------0----0=====------|
A |-------------------------|-------------------------|
E |-------------------------|-------------------------|

9
e |-------------------------|-------------------------|
B |-------------------------|-------------------------|
G |-----0-----0-----0-----0-|-----0-----0-----0-----0-|
D |---0-----0-----2-----2---|---4-----4-----4-----4---|
A |-2-----2-----3-----3-----|-5-----5-----5-----5-----|
E |-------------------------|-------------------------|

11
e |-------------------------|-------------------0-----|
B |-----1-----1-----0-----0-|-----0-----0-----0-------|
G |---0-----0-----2-----2---|---0-----0-----0---------|
D |-------------0-----0-----|-2-----2-----2-----------|
A |-3-----3-----------------|-------------------------|
E |-------------------------|-------------------------|

13
e |-----3-----3-----2-----2-|-----0-----0-----0-----0-|
B |---0-----0-----0-----0---|---0-----0-----0-----0---|
G |-------------------------|-------------------------|
D |-2-----2-----1-----1-----|-0-----0-----------------|
A |-------------------------|-------------4-----4-----|
E |-------------------------|-------------------------|

15
e |-----0-----0-------------|-------------------------|
B |---0-----0-------3-----3-|-----0-----0-----0-------|
G |---------------2-----2---|---0-----0-----0---------|
D |-------------0-----0-----|-------------------------|
A |-3-----3-----------------|-------------------------|
E |-------------------------|-3-----3-----3-----3-----|

17
e |-------------------------|-------------------------|
B |-------------------------|-------------------------|
G |-----0-----0-----0-----0-|-----0-----0-----0-----0-|
D |---0-----0-----2-----2---|---4-----4-----4-----4---|
A |-2-----2-----3-----3-----|-5-----5-----5-----5-----|
E |-------------------------|-------------------------|

19
e |-------------------------|-------------------0-----|
B |----0----0-------0-----0-|-----0-----0-----0-------|
G |--0-----0------2-----2---|---0-----0-----0---------|
D |-------------0-----0-----|-2-----2-----2-----------|
A |-3-----3-----------------|-------------------------|
E |-------------------------|-------------------------|

21
e |-----3-----3-----2-----2-|-----0-----0-----0-------|
B |---0-----0-----0-----0---|---0-----0-----0---------|
G |-------------------------|-------------------------|
D |-2-----2-----1-----1-----|-0-----0-----------------|
A |-------------------------|-------------4-----4-----|
E |-------------------------|-------------------------|

23
e |-------------------------|-------------------------|
B |-------------------------|-------------------------|
G |-----0-----0-----2-----2-|-----0-----0-------------|
D |---0-----0-----0-----0---|---2-----2---------------|
A |-3-----3-----------------|-------------------------|
E |-------------2-----2-----|-0-----0-----0=====------|

25
e |-------------------------|-------------------------|
B |-----0-----0-----0-----0-|-----0-----0-----0-----0-|
G |---0-----0-----2-----2---|---0-----0-----0-----0---|
D |-------------0-----0-----|-2-----2-----2-----2-----|
A |-3-----3-----------------|-------------------------|
E |-------------------------|-------------------------|

27
e |-----0-----0-----0-----0-|-----0-----0-----0-------|
B |---0-----0-----1-----1---|---0-----0-----0---------|
G |-------------------------|-------------------------|
D |-------------0-----0-----|-2-----2-----2-----2-----|
A |-3-----3-----------------|-------------------------|
E |-------------------------|-------------------------|

29
e |-----0-----0-----0-----0-|-----0-----0-----0-----0-|
B |---0-----0-----0-----0---|---1-----1-----0-----0---|
G |-------------0-----0-----|-2-----2-----0-----0-----|
D |-4-----4-----------------|-------------------------|
A |-------------------------|-------------------------|
E |-------------------------|-------------------------|
  <- ===================== +>

31
e |-----0-----0-----0-----0-|-------------------------|
B |---0-----0-----1-----1---|-----3-----3-----3-------|
G |-------------------------|---2-----2-----2---------|
D |-4-----4-----2-----2-----|-0-----0-----0-----0-----|
A |-------------------------|-------------------------|
E |-------------------------|-------------------------|
  <- ====== +> <+ ======== ->

33
e |-------------------------|-------------------------|
B |-----0-----0-----0-----0-|-----0-----0-----0-----0-|
G |---0-----0-----2------2--|---0-----0-----0-----0---|
D |-------------0-----0-----|-2-----2-----2-----2-----|
A |-3-----3-----------------|-------------------------|
E |-------------------------|-------------------------|

35
e |-----0-----0-----0-----0-|-----0-----0-----0-------|
B |---0-----0-----1-----1---|---0-----0-----0---------|
G |-------------------------|-------------------------|
D |-------------0-----0-----|-2-----2-----2-----2-----|
A |-3-----3-----------------|-------------------------|
E |-------------------------|-------------------------|

37
e |-------------------------|-------------------------|
B |-------------------------|-----------------0-----0-|
G |-----0-----0-----2-----2-|-----0-----0---0-----0---|
D |---0-----0-----0-----0---|---2-----2---------------|
A |-3-----3-----------------|-------------------------|
E |-------------2-----2-----|-0-----0-----0-----0-----|

39
e |-----0-----0-----3-----3-|-7================------||
B |---0-----0-----5-----5---|-8================------||
G |-------------------------|------------------------||
D |-------------------------|------------------------||
A |-------------------------|------------------------||
E |-0-----0-----0-----0-----|------------------------||  end.
Добавлено: 01.04.2012
Другие материалы по этой песне:
  • Аккорды и текст

Страница создана 01.04.2012
http://primanota.ru/andrew-york/8-discernments-snowflight-chords.htm
Привет, Гость.
Предлагаем пройти революционный курс по гитаре.
Подарок от PrimaNota.Ru, забирай!