PrimaNota.ru - самый крупный в мире бесплатный архив песенных текстов, аккордов, табулатур и нот


Эндрю Йорк - Snowflight - таба, видео

Регистрация Запомнить меня
Войти через:  Facebook Google Twitter Vk Yandex Mail.ru

Эндрю Йорк - Snowflight - таба, видео

Печатать
Просмотров: 191
Andrew York
Snowflight
Standard Tuning - EADGBe

Hi guys, this is my first time writing a tab so please bare with me. :)

I am certain this tab is 100% correct.

12/8 timing

e|---------------------------------------------------|
B|-----------0-----------0-----------0-----------0---|
G|-------0-----------0-----------2-----------2-------|
D|---------------------------0-----------0-----------|
A|---3-----------3-----------------------------------|
E|---------------------------------------------------|

E|---------------------------------------------------|
A|---------------------------------------------------|
D|-----------0-----------0-----------0-----------0---|
G|-------0-----------0-----------0-----------0-------|
B|---2-----------2-----------2-----------2-----------|
e|---------------------------------------------------|

E|-----------0-----------0-----------0-----------0---|
A|-------0-----------0-----------1-----------1-------|
D|---------------------------------------------------|
G|---------------------------0-----------0-----------|
B|---3-----------3-----------------------------------|
e|---------------------------------------------------|

E|-----------0-----------0-----------0---------------|
A|-------0-----------0-----------0-------------------|
D|---------------------------------------------------|
G|---2-----------2-----------2-----------2-----------|
B|---------------------------------------------------|
e|---------------------------------------------------|

E|-----------0-----------0-----------0-----------0---|
A|-------0-----------0-----------0-----------0-------|
D|---------------------------0-----------0-----------|
G|---4-----------4-----------------------------------|
B|---------------------------------------------------|
e|---------------------------------------------------|

E|-----------0-----------0-----------0-----------0---|
A|-------1-----------1-----------0-----------0-------|
D|---2-----------2-----------0-----------0-----------|
G|---------------------------------------------------|
B|---------------------------------------------------|
e|---------------------------------------------------|

E|-----------0-----------0-----------0-----------0---|
A|-------0-----------0-----------1-----------1-------|
D|---------------------------------------------------|
G|---4-----------4-----------2-----------2-----------|
B|---------------------------------------------------|
e|---------------------------------------------------|

E|---------------------------------------------------|
A|-----------3-----------3-----------3---------------|
D|-------2-----------2-----------2-------------------|
G|---0-----------0-----------0-----------0-----------|
B|---------------------------------------------------|
e|---------------------------------------------------|

E|---------------------------------------------------|
A|---------------------------------------------------|
D|-----------0-----------0------------0-----------0--|
G|-------0-----------0------------2-----------2------|
B|---2-----------2------------3-----------3----------|
e|---------------------------------------------------|

E|---------------------------------------------------|
A|---------------------------------------------------|
D|-----------0-----------0-----------0-----------0---|
G|-------4-----------4-----------4-----------4-------|
B|---5-----------5-----------5-----------5-----------|
e|---------------------------------------------------|

E|---------------------------------------------------|
A|-----------0-----------0-----------0-----------0---|
D|-------0-----------0-----------2-----------2-------|
G|---------------------------0-----------0-----------|
B|---3-----------3-----------------------------------|
e|---------------------------------------------------|

E|---------------------------------------0-----------|
A|-----------0-----------0-----------0---------------|
D|-------0-----------0-----------0-------------------|
G|---2-----------2-----------2-----------------------|
B|---------------------------------------------------|
e|---------------------------------------------------|

E|-----------3-----------3-----------2-----------2---|
A|-------0-----------0-----------0-----------0-------|
D|---------------------------------------------------|
G|---2-----------2-----------1-----------1-----------|
B|---------------------------------------------------|
e|---------------------------------------------------|

E|-----------0-----------0-----------0-----------0---|
A|-------0-----------0-----------0-----------0-------|
D|---------------------------------------------------|
G|---0-----------0-----------------------------------|
B|---------------------------4-----------4-----------|
e|---------------------------------------------------|

E|-----------0-----------0---------------------------|
A|-------0-----------0---------------3-----------3---|
D|-------------------------------2-----------2-------|
G|---------------------------0-----------0-----------|
B|---3-----------3-----------------------------------|
e|---------------------------------------------------|

E|---------------------------------------------------|
A|-----------0-----------0-----------0---------------|
D|-------0-----------0-----------0-------------------|
G|---------------------------------------------------|
B|---------------------------------------------------|
e|---3-----------3-----------3-----------3-----------|

E|---------------------------------------------------|
A|---------------------------------------------------|
D|-----------0-----------0-----------0-----------0---|
G|-------0-----------0-----------2-----------2-------|
B|---2-----------2-----------3-----------3-----------|
e|---------------------------------------------------|

E|---------------------------------------------------|
A|---------------------------------------------------|
D|-----------0-----------0-----------0-----------0---|
G|-------4-----------4-----------4-----------4-------|
B|---5-----------5-----------5-----------5-----------|
e|---------------------------------------------------|

E|---------------------------------------------------|
A|-----------0-----------0-----------0-----------0---|
D|-------0-----------0-----------2-----------2-------|
G|---------------------------0-----------0-----------|
B|---3-----------3-----------------------------------|
e|---------------------------------------------------|

E|---------------------------------------0-----------|
A|-----------0-----------0-----------0---------------|
D|-------0-----------0-----------0-------------------|
G|---2-----------2-----------2-----------------------|
B|---------------------------------------------------|
e|---------------------------------------------------|

E|-----------3-----------3-----------2-----------2---|
A|-------0-----------0-----------0-----------0-------|
D|---------------------------------------------------|
G|---2-----------2-----------1-----------1-----------|
B|---------------------------------------------------|
e|---------------------------------------------------|

E|-----------0-----------0-----------0---------------|
A|-------0-----------0-----------0-------------------|
D|---------------------------------------------------|
G|---0-----------0-----------------------------------|
B|---------------------------4-----------4-----------|
e|---------------------------------------------------|

E|---------------------------------------------------|
A|---------------------------------------------------|
D|-----------0-----------0-----------2-----------2---|
G|-------0-----------0-----------0-----------0-------|
B|---3-----------3-----------------------------------|
e|---------------------------2-----------2-----------|

E|---------------------------------------------------|
A|---------------------------------------------------|
D|-----------0-----------0---------------------------|
G|-------2-----------2-------------------------------|
B|---------------------------------------------------|
e|---0-----------0-----------0-----------------------|

E|---------------------------------------------------|
A|-----------0-----------0-----------0-----------0---|
D|-------0-----------0-----------2-----------2-------|
G|---------------------------0-----------0-----------|
B|---3-----------3-----------------------------------|
e|---------------------------------------------------|

E|---------------------------------------------------|
A|-----------0-----------0-----------0-----------0---|
D|-------0-----------0-----------0-----------0-------|
G|---2-----------2-----------2-----------2-----------|
B|---------------------------------------------------|
e|---------------------------------------------------|

E|-----------0-----------0-----------0-----------0---|
A|-------0-----------0-----------1-----------1-------|
D|---------------------------------------------------|
G|---------------------------0-----------0-----------|
B|---3-----------3-----------------------------------|
e|---------------------------------------------------|

E|-----------0-----------0-----------0---------------|
A|-------0-----------0-----------0-------------------|
D|---------------------------------------------------|
G|---2-----------2-----------2-----------2-----------|
B|---------------------------------------------------|
e|---------------------------------------------------|

E|-----------0-----------0-----------0-----------0---|
A|-------0-----------0-----------0-----------0-------|
D|---------------------------0-----------0-----------|
G|---4-----------4-----------------------------------|
B|---------------------------------------------------|
e|---------------------------------------------------|

E|-----------0-----------0-----------0-----------0---|
A|-------1-----------1-----------0-----------0-------|
D|---2-----------2-----------0-----------0-----------|
G|---------------------------------------------------|
B|---------------------------------------------------|
e|---------------------------------------------------|

E|-----------0-----------0-----------0-----------0---|
A|-------1-----------1-----------1-----------1-------|
D|---------------------------------------------------|
G|---4-----------4-----------2-----------2-----------|
B|---------------------------------------------------|
e|---------------------------------------------------|

E|---------------------------------------------------|
A|-----------3-----------3-----------3---------------|
D|-------2-----------2-----------2-------------------|
G|---0-----------0-----------0-----------0-----------|
B|---------------------------------------------------|
e|---------------------------------------------------|

E|---------------------------------------------------|
A|-----------0-----------0-----------0-----------0---|
D|-------0-----------0-----------2-----------2-------|
G|---------------------------0-----------0-----------|
B|---3-----------3-----------------------------------|
e|---------------------------------------------------|

E|-----------0-----------0-----------0-----------0---|
A|-------0-----------0-----------0-----------0-------|
D|---------------------------------------------------|
G|---2-----------2-----------2-----------2-----------|
B|---------------------------------------------------|
e|---------------------------------------------------|

E|-----------0-----------0-----------0-----------0---|
A|-------0-----------0-----------1-----------1-------|
D|---------------------------------------------------|
G|---------------------------0-----------0-----------|
B|---3-----------3-----------------------------------|
e|---------------------------------------------------|

E|-----------0-----------0-----------0---------------|
A|-------0-----------0-----------0-------------------|
D|---------------------------------------------------|
G|---2-----------2-----------2------------2----------|
B|---------------------------------------------------|
e|---------------------------------------------------|

E|---------------------------------------------------|
A|---------------------------------------------------|
D|-----------0-----------0-----------2-----------2---|
G|-------0-----------0-----------0-----------0-------|
B|---3-----------3-----------------------------------|
e|---------------------------2-----------2-----------|

E|---------------------------------------------------|
A|---------------------------------------------------|
D|-----------0-----------0-----------0-----------0---|
G|-------2-----------2-----------0-----------0-------|
B|---------------------------------------------------|
e|---0-----------0-----------0-----------0-----------|

E|-----------0-----------0------------3----------3---|
A|-------0-----------0------------5----------5-------|
D|---------------------------------------------------|
G|---------------------------------------------------|
B|---------------------------------------------------|
e|---0-----------0------------0----------0-----------|

E|---7----------------------------------------------||
A|---8----------------------------------------------||
D|--------------------------------------------------||
G|--------------------------------------------------||
B|--------------------------------------------------||
e|--------------------------------------------------||

Cheers. :)
Добавлено: 04.03.2012
Другие материалы по этой песне:

Страница создана 04.03.2012
http://primanota.ru/andrew-york/snowflight-chords.htm
Привет, Гость.
Предлагаем пройти революционный курс по гитаре.
Подарок от PrimaNota.Ru, забирай!