PrimaNota.ru - самый крупный в мире бесплатный архив песенных текстов, аккордов, табулатур и нот


Anberlin - Dance Dance Christa Paffgen - текст песни, таба, бас-таба, видео

Регистрация Запомнить меня
Войти через:  Facebook Google Twitter Vk Yandex Mail.ru

Anberlin - Dance Dance Christa Paffgen - текст песни, таба, бас-таба, видео

Печатать
Просмотров: 268
Уроки эстрадного вокала в Санкт-Петербурге
Tabbed by:  Ashley

Intro & Verse 1 and 2  (Clean, some Gain & Reverb)
0:13
|---------------------3----------------------3-----------------------3----------------------3-----------|
|-------------------------------------------------------------------------------------------------------|
|--------------2----------------------2----------------------0----------------------0-------------------|
|----------2----------------------2----------------------2----------------------2-----------------------|
|------0----------------------0----------------------3----------------------3---------------------------|
|-------------------------------------------------------------------------------------------------------|


                                                                                         
                                          [2x]
|---------------------3-----------------------------------------|-----------------------3------------------------------------------|
|---------------------------1---1---0---1---0-------------------|-----------------------------1---1---0---1---0--------------------|
|--------------2-----------------------------------2----[2x]----|----------------0-----------------------------------0-----[2x]----|
|----------2----------------------------------------------------|-----------2------------------------------------------------------|
|------0--------------------------------------------------------|-------3----------------------------------------------------------|
|---------------------------------------------------------------|------------------------------------------------------------------|

Bridge (Some Distortion, Gain & Reverb)
0:44				     1st Bridge 			        2nd Bridge
|-----------------------------|-------------------------------------|--------------------------------------------------------------|
|---[16x]----[8x]-----[8x]----|-----[32x]-------------0-~~~~--------|--------[16x]----[16x]----------------------------------------|
|-----------------------------|----------------2-~-------2-~~~------|--------------------------------------------------------------|
|-----7--------9-------10-----|------10--------2-~----------2-~~----|---------10--------12-----------------------------------------|
|-----7--------7--------7-----|------10--------0-~------------------|---------10--------12-----------------------------------------|
|-----7--------7--------7-----|------10-----------------------------|---------10--------12-----------------------------------------|

Chorus (Rythm)                      Chorus (Lead)   (Transition to Verse 3->)
|-----------------------------------|------------------------------------------|------------|-------------------|
|----[16x]---[16x]---[16x]---[16x]--|------13------------------15--------------|------------|----13-p-12-~~~~~--|
|-----------------------------------|-----------12----[4x]--------12---[4x]----|------2-~---|-------------------|
|------3-------5-------7-------5----|------------------------------------------|------2-~---|-------------------|
|------3-------5-------7-------3----|------------------------------------------|------0-~---|-------------------|
|------3-------5-------7------------|------------------------------------------|------------|-------------------|

Verse 3 (Clean, Gain & Solo)
2:27
|------------------------------------------------------------------------------------------|--------------|
|---------------0-----------------0--------------------3--------------------3--------------|---[16x]------|
|-----------2----------------2--------------------0--------------------0------------[2x]---|------2-------|
|------------------------------------------------------------------------------------------|------2-------|
|-----0-----------------0------------------3-------------------3---------------------------|------0-------|
|------------------------------------------------------------------------------------------|--------------|


Chorus

(Play after Chorus)
3:21
|--------------------------------------------------------------------------------------------------------|
|-----15---------------------------------15-~------------------------------------------------------------|
|------------12----[16x]-------------12-~----------------------------------------------------------------|
|--------------------------------10-~--------------------------------------------------------------------|
|--------------------------------------------------------------------------------------------------------|
|--------------------------------------------------------------------------------------------------------|

Solo (Rythm)
|--------------------------------------------------------------------------------------------------------|
|---[8x]---[8x]----[16x]---------------------------------------------------------------------------------|
|--------------------------------------------------------------------------------------------------------|
|-----7-------3-------5----------------------------------------------------------------------------------|
|-----7-------3-------5----------------------------------------------------------------------------------|
|-----7-------3-------5----------------------------------------------------------------------------------|


Solo (Lead)
3:48						     1st				2nd
|--------------------------------------------------------------|-------------------------------|-----------------------------------------|
|-o----------------------------------------------------------o-|-------------------------------|-----------------------------------------|
|-----4-^--4----2---0---2---0----------------------------------|--------------4------4---------|-----------------------------------5-~---|
|------------------------------------2---0---2\5---5--5\7------|----5---7-------5------5-------|----5--5\7---7\9----9\10-----7-~---------|
|-o----------------------------------------------------------o-|-------------------------------|-----------------------------------0-~---|
|--------------------------------------------------------------|-------------------------------|-----------------------------------------|


4:15
|--------12-~------12~-----------------------12^----------------------------------------------------------12^-------------------------------------12^------------------------|
|---10---------10------------------------10----------10--10--10--10--10--10--10-10~-------------------10----------10--10--10--10--10--10--10--10-----------------------------|
|------------------------9^--^--^--^-----------------------------------------------------9^--^--^--^---------------------------------------------------9^--^--^--^-----------|
|----------------------------------------------------------------------------------------------------------------------------------------------------------------------------|
|----------------------------------------------------------------------------------------------------------------------------------------------------------------------------|
|----------------------------------------------------------------------------------------------------------------------------------------------------------------------------|


4:34				           (1st & 3rd X) (2nd & 4th X)
|-------------------------------------------------------|--------------|---------------|
|-------------------------------------------------------|-----8--------|-----10--------|
|----9---9---9---7---7---7---9---9---9---10--10--10-----|-----9--[4x]--|------9--[4x]--|
|----7---7---7---7---7---7---7---7---7----7---7---7---|-----7--------|------7----------|
|-------------------------------------------------------|--------------|---------------|
|-------------------------------------------------------|--------------|---------------|
         *   *       *   *       *   *        *   *

4:51		            (1st, 3rd, & 5th)     (2nd, 4th, & 6th)	 [6x]
|---------------------------|---------------------|----------------------------------------------|
|--1-1-1\3-3-3\5-5-5\6-6-6--|---\8-8-8------------|--\10-10-10-10--------------------------------|
|---------------------------|---------------------|----------------------------------------------|
|---------------------------|---------------------|----------------------------------------------|
|---------------------------|---------------------|----------------------------------------------|
|---------------------------|---------------------|----------------------------------------------|


					                            [6x]
|----12--------12------------12---------12------------12----------------|--------------------|
|----------10--------12-~---------10---------12-~---------10--12---13---|--------------------|
|-----------------------------------------------------------------------|----2---------------|
|-----------------------------------------------------------------------|----2----[16x]------|
|-----------------------------------------------------------------------|----0---------------|
|-----------------------------------------------------------------------|--------------------|

Chorus

Outro
|----------------------------------------------------------------------------------------------|
|--------------3-------------------------------------------------------------------------------|
|----------0-----------------------------------------------------------------------------------|
|--------------------[Echo]--------------------------------------------------------------------|
|-----3----------------------------------------------------------------------------------------|
|----------------------------------------------------------------------------------------------|

If you need help, or want to add to this tab, please IM or E-mail me at Glitter31291@aim.com.  Thanks, and enjoy.
Добавлено: 03.07.2012
Другие материалы по этой песне:
  • Аккорды и текст

Страница создана 21.03.2012
http://primanota.ru/anberlin/dance-dance-christa-paffgen-chords.htm
Привет, Гость.
Предлагаем пройти революционный курс по гитаре.
Подарок от PrimaNota.Ru, забирай!