PrimaNota.ru - самый крупный в мире бесплатный архив песенных текстов, аккордов, табулатур и нот


Anberlin - The Resistance - текст песни, таба, видео

Регистрация Запомнить меня
Войти через:  Facebook Google Twitter Vk Yandex Mail.ru

Anberlin - The Resistance - текст песни, таба, видео

Печатать
Просмотров: 307




Guitar 1
       PM PM PM PM PM PM PM PM PM PM PM PM PM PM PMPM  
       S  S  S  S  S  S  S  S  S  S  S  S  S  S  S S   
D#||--------------------------------------------------|
A#||--------------------------------------------------|
F#||--------------------------------------------------|
C#||--------------------------------------------------|
G#||--12-12-12-12-12-12-12-12-12-12-12-12-12-12-11-9--|
C#||--------------------------------------------------|


   PM PM PM PM PM PM PM PM PM PM PM PM PM PM PM PM 
   S  S  S  S  S  S  S  S  S  S  S  S  S  S  S  S  
--------------------------------------------------|
--------------------------------------------------|
--------------------------------------------------|
--------------------------------------------------|
--11-12-12-12-12-12-12-12-12-12-12-12-12-12-12-12-|
--------------------------------------------------|


   PM PM PM PM PM PM PM PMPM PM PM PM  PM PM PM PM 
   S  S  S  S  S  S  S  S S  S  S  S   S  S  S  S  
--------------------------------------------------|
--------------------------------------------------|
--------------------------------------------------|
--12-12-12-12-11-11-11-11-9--9--9--9--------------|
--------------------------------------12-12-12-12-|
--------------------------------------------------|


      PM PM PM PM PM PM PM PM PM PM PM             
   S  S  S  S  S  S  S  S  S  S  S  S  S  S  S  S  
--------------------------------------------------|
--------------------------------------------------|
--------------------------------------------------|
--------------------------------------------------|
--12-14-14-14-14-14-14-14-11-11-11-11-11-11-11-11-|   x2
--------------------------------------------------|


  E  E  E  E  E  E  E  E   
--------------------------|
--------------------------|
--------------------------|
--0--0--0--0--0--0--0--0--|
--0--0--0--0--0--0--0--0--|
--0--0--0--0--0--0--0--0--|



Guitar 2
      PM PM PM PM PM PM PM PM PM PM PM PM PM PM PM PM  
      S  S  S  S  S  S  S  S  S  S  S  S  S  S  S  S   
D#||--------------------------------------------------|
A#||--------------------------------------------------|
F#||--------------------------------------------------|
C#||--------------------------------------------------|
G#||--------------------------------------------------|
C#||--4--4--4--4--4--4--4--4--4--4--4--4--4--4--4--4--|


  PM PM PM PM PM PM PM PM PM PM PM PM PM PM PM PM  
  S  S  S  S  S  S  S  S  S  S  S  S  S  S  S  S   
--------------------------------------------------|
--------------------------------------------------|
--------------------------------------------------|
--------------------------------------------------|
--------------------------------------------------|
--4--4--4--4--4--4--4--4--4--4--4--4--4--4--4--4--|


  PM PM PM PM PM PM PM PM PM PM PM PM PM PM PM PM  
  S  S  S  S  S  S  S  S  S  S  S  S  S  S  S  S   
--------------------------------------------------|
--------------------------------------------------|
--------------------------------------------------|
--------------------------------------------------|
--------------------------------------------------|
--0--0--0--0--0--0--0--0--0--0--0--0--0--0--0--0--|


  PM PM PM PM PM PM PM PM PM PM PM PM PM PM PM PM  
  S  S  S  S  S  S  S  S  S  S  S  S  S  S  S  S   
--------------------------------------------------|
--------------------------------------------------|
--------------------------------------------------|
--------------------------------------------------|
--------------------------------------------------|    x2
--2--2--2--2--2--2--2--2--2--2--2--2--2--2--2--2--|


  

Добавлено: 14.05.2012
Другие материалы по этой песне:

Страница создана 22.03.2012
http://primanota.ru/anberlin/the-resistance-chords.htm
Привет, Гость.
Предлагаем пройти революционный курс по гитаре.
Подарок от PrimaNota.Ru, забирай!