PrimaNota.ru - самый крупный в мире бесплатный архив песенных текстов, аккордов, табулатур и нот


Anberlin - Days Of Our Lives - таба, видео

Регистрация Запомнить меня
Войти через:  Facebook Google Twitter Vk Yandex Mail.ru

Anberlin - Days Of Our Lives - таба, видео

Печатать
Просмотров: 165
-----------------------------------------------------------------------------
                             SONG NAME - Band Name
-----------------------------------------------------------------------------
Tabbed by: Johnny
Email: Quiksilver6016@yahoo.com

Tuning: Normal

Guitar 1
intro 3x
e|--------------------------------------------------------------------------|
B|-------------------(at-end-do-this)---------------------------------------|
G|-7~---10~-----------------------------------------------------------------|
D|-7~---10~---10~-----7~----7-------7---7-----------------------------------|
A|-5~----8~---10~-----5~--5---5---8---8---8---10~---------------------------|
E|-------------8~------------------------------8~---------------------------|

Chorus 2x
e|--------------------------------------------------------------------------|
B|--------------------------------------------------------------------------|
G|-7------------------------------------------------------------------------|
D|-7(12x)--7------5-------7------9-------7------5-------7-------------------|
A|-5-------x(4x)--5(12x)--x(4x)--9(12x)--x(4x)--5(12x)--x(4x)---------------|
E|---------5------3-------5------7-------5------3-------5-------------------|

Bridge 2x
e|--------------------------------------------------------------------------|
B|--------------------------------------------------------------------------|
G|---7-7--------------------------------------------------------------------|
D|-7-x-x-----7-7-----5-5----------------------------------------------------|
A|-5-5-5---7-x-x---5-x-x--9--7----------------------------------------------|
E|---------5-5-5---3-3-3--7--5----------------------------------------------|

Verse 4x
e|----------------------(On-Fourth-time---------------------(harmonics)-----|
B|--------------------------do-this)----------------------------------------|
G|-7------------------7---5---4---2----4~--5~--7/9/10-----------------------|
D|-78x-7---5---9------78x-58x-48x-28x--4~--5~--x/x/x--10-7~------+7---------|
A|-5---78x-58x-98x----5---3---2---0----2~--3~--5/7/8--10-7~---+77---7+------|
E|-----5---3---7---------------------------------------8-5~-+55-------------|

Chorus 2x
Verse 4x
Chorus 2x

Outro 3x
e|--------------------------------------------------------------------------|
B|--------------------------------------------------------------------------|
G|-----------------------------7/9/10---------------------------------------|
D|-7(8x)-----------------------x/x/x--10-7~--------+7-----------------------|
A|-5----7(8x)-5(8x)-9-7--5~-7~-5/7/8--10-7~-----+77--+7---------------------|
E|------5-----3-----7-5--3~-5~--------8--5~--+55----------------------------|


Guitar 2
intro 3x 
e|--------------------------------------------------------------------------|
B|--------------------------------------------------------------------------|
G|---7-----10---------------------------------------------------------------|
D|---7(8x)-10(8x)-10-----3-----2--------7~----------------------------------|
A|---5-----8------10(8x)-3(4x)-2(4x)----5~----------------------------------|
E|----------------8------1-----0--------------------------------------------|

Chorus 2x
e|--------------------------------------------------------------------------|
B|------(2x)----------------------------------------------------------------|
G|-6/7-77-6/7-9-7-----12-----7-6-7-9--6/7-77-6/7-9-7------------------------|
D|-x/x-xx-x/x-x-x-----x-(6x)-x-x-x-x--x/x-xx-x/x-x-x------------------------|
A|-4/5-55-4/5-7-5-----10-----5-4-5-7--4/5-55-4/5-7-5------------------------|
E|--------------------------------------------------------------------------|

For the rest guitar 2 plays the same thing as guitar 1.


| /  slide up
| \  slide down
| h  hammer-on
| p  pull-off
| ~  vibrato
| +  harmonic
| x  Mute note
=============================================================================
Добавлено: 27.02.2012
Другие материалы по этой песне:
  • Аккорды и текст

Страница создана 27.02.2012
http://primanota.ru/anberlin/days-of-our-lives-chords.htm
Привет, Гость.
Предлагаем пройти революционный курс по гитаре.
Подарок от PrimaNota.Ru, забирай!