PrimaNota.ru - самый крупный в мире бесплатный архив песенных текстов, аккордов, табулатур и нот


Anberlin - Dissapear - таба, видео

Регистрация Запомнить меня
Войти через:  Facebook Google Twitter Vk Yandex Mail.ru

Anberlin - Dissapear - таба, видео

Печатать
Просмотров: 160
---------------------------------------------------------------------------
                             Dissapear - Anberlin
---------------------------------------------------------------------------
Tabbed by: sketcherman
Email: sketchermancj@gmail.com

Tuning: Drop D




Intro

Guitar 1 (synth)
e|-----------------|-----------------|-----------------|-----------------|
B|-------6-------6-|-------6-------6-|-------6-------6-|-------6-------6-|
G|---7-------7-----|---7-------7-----|---7-------7-----|---9-------9-----|
D|-5---5---5---5---|-5---5---5---5---|-8---8---8---8---|-10--10--10--10--|
A|-----------------|-----------------|-----------------|-----------------|
D|-----------------|-----------------|-----------------|-----------------|
(x3)

Guitar 2 (comes in after the intro is played once)
e|-----------------|-----------------|-----------------|-----------------|
B|-----------------|-----------------|-----------------|-----------------|
G|-----------------|-----------------|-----------------|-----------------|
D|-5---5---5---5---|-5---5---5---5---|-8---8---8---8---|-3---3---3---3---|
A|-5---5---5---5---|-5---5---5---5---|-8---8---8---8---|-3---3---3---3---|
D|-5---5---5---5---|-5---5---5---5---|-8---8---8---8---|-3---3---3---3---|
(x2)




Verse 1

Guitar 2 (hold this power chord for 4 measures)
e|-----------------|-----------------|-----------------|-----------------|
B|-----------------|-----------------|-----------------|-----------------|
G|-----------------|-----------------|-----------------|-----------------|
D|-5---------------|-----------------|-----------------|-----------------|
A|-5---------------|-----------------|-----------------|-----------------|
D|-5---------------|-----------------|-----------------|-----------------|

Rest for 4 measures, then play:

Guitar 1
e|-----------------|-----------------|-----------------|-----------------|
B|-------6-------6-|-------6-------6-|-------6-------6-|-------6-------6-|
G|---7-------7-----|---7-------7-----|---7-------7-----|---9-------9-----|
D|-5---5---5---5---|-5---5---5---5---|-8---8---8---8---|-10--10--10--10--|
A|-----------------|-----------------|-----------------|-----------------|
D|-----------------|-----------------|-----------------|-----------------|
(x2)

Guitar 2
e|-----------------|-----------------|-----------------|-----------------|
B|-----------------|-----------------|-----------------|-----------------|
G|-----------------|-----------------|-----------------|-----------------|
D|-5-5-5-x-x-5-x-5-|-5-5-5-x-x-5-x-5-|-8-8-8-x-x-8-x-8-|-3-3-3-x-x-3-x-3-|
A|-5-5-5-x-x-5-x-5-|-5-5-5-x-x-5-x-5-|-8-8-8-x-x-8-x-8-|-3-3-3-x-x-3-x-3-|
D|-5-5-5-x-x-5-x-5-|-5-5-5-x-x-5-x-5-|-8-8-8-x-x-8-x-8-|-3-3-3-x-x-3-x-3-|
(x2)




Pre-Chorus 1

Guitar 1 (synth)
e|-----------------|-----------------|-----------------|-----------------|
B|-----6-----------|-----6---8-6-----|-----6-----------|-----6-----------|
G|---7-------------|---7---------7---|---7-------------|---7-------------|
D|-5---------------|-5---------------|-8---------------|-8---------------|
A|-----------------|-----------------|-----------------|-----------------|
D|-----------------|-----------------|-----------------|-----------------|
(x2)

Guitar 2
e|-----------------|-----------------|-----------------|-----------------|
B|-----------------|-----------------|-----------------|-----------------|
G|-----------------|-----------------|-----------------|-----------------|
D|-1---------------|-1-------5-------|-3---------------|-3-------3-------|
A|-1---------------|-1-------5-------|-3---------------|-3-------3-------|
D|-1---------------|-1-------5-------|-3---------------|-3-------3-------|

e|-----------------|-----------------|-----------------|-----------------|
B|-----------------|-----------------|-----------------|-----------------|
G|-----------------|-----------------|-----------------|-----------------|
D|-1---------------|-1-------5-------|-3---------------|-----------------|
A|-1---------------|-1-------5-------|-3---------------|-1-1-1-0-0-0-----|
D|-1---------------|-1-------5-------|-3---------------|-------------3-3-|




Chorus 1

Guitar 2
e|-----------------|-----------------|-----------------|-----------------|
B|-----------------|-----------------|-----------------|-----------------|
G|-----------------|-----------------|-----------------|-----------------|
D|-5-5-5-5-5-5-5-5-|-1-1-1-1-1-1-1-1-|-8-8-8-8-8-8-8-8-|-----------------|
A|-5-5-5-5-5-5-5-5-|-1-1-1-1-1-1-1-1-|-8-8-8-8-8-8-8-8-|-----------------|
D|-5-5-5-5-5-5-5-5-|-1-1-1-1-1-1-1-1-|-8-8-8-8-8-8-8-8-|-8-8-7-7-5-5-3-3-|

e|-----------------|-----------------|-----------------|-----------------|
B|-----------------|-----------------|-----------------|-----------------|
G|-----------------|-----------------|-----------------|-----------------|
D|-5-5-5-5-5-5-5-5-|-1-1-1-1-1-1-1-1-|-8-8-8-8-8-8-8-8-|-8-8-8-8-8-8-8-8-|
A|-5-5-5-5-5-5-5-5-|-1-1-1-1-1-1-1-1-|-8-8-8-8-8-8-8-8-|-8-8-8-8-8-8-8-8-|
D|-5-5-5-5-5-5-5-5-|-1-1-1-1-1-1-1-1-|-8-8-8-8-8-8-8-8-|-8-8-8-8-8-8-8-8-|

e|-----------------|-----------------|-----------------|-----------------|
B|-----------------|-----------------|-----------------|-----------------|
G|-----------------|-----------------|-----------------|-----------------|
D|-5-5-5-5-5-5-5-5-|-1-1-1-1-1-1-1-1-|-8-8-8-8-8-8-8-8-|-----------------|
A|-5-5-5-5-5-5-5-5-|-1-1-1-1-1-1-1-1-|-8-8-8-8-8-8-8-8-|-----------------|
D|-5-5-5-5-5-5-5-5-|-1-1-1-1-1-1-1-1-|-8-8-8-8-8-8-8-8-|-8-8-7-7-5-5-3-3-|

e|-----------------|-----------------|
B|-----------------|-----------------|
G|-----------------|-----------------|
D|-1-x-x-1-x-x-1-x-|-1-x-x-1-x-x-----|
A|-1-x-x-1-x-x-1-x-|-1-x-x-1-x-x-----|
D|-1-x-x-1-x-x-1-x-|-1-x-x-1-x-x-----|




Now play the intro twice (both guitars), and go to the next verse...




Verse 2

Guitar 2
e|-----------------|-----------------|-----------------|-----------------|
B|-----------------|-----------------|-----------------|-----------------|
G|-----------------|-----------------|-----------------|-----------------|
D|-----------------|-----------------|-----------------|-----------------|
A|-5-5-5-5-5-5-5-5-|-5-5-5-5-5-5-5-5-|-8-8-8-8-8-8-8-8-|-3-3-3-3-3-3-3-3-|
D|-5-5-5-5-5-5-5-5-|-5-5-5-5-5-5-5-5-|-8-8-8-8-8-8-8-8-|-3-3-3-3-3-3-3-3-|
   . . . . . . . .   . . . . . . . .   . . . . . . . .   . . . . . . . .
(x2)

Then play...

Guitar 1
e|-----------------|-----------------|-----------------|-----------------|
B|-------6-------6-|-------6-------6-|-------6-------6-|-------6-------6-|
G|---7-------7-----|---7-------7-----|---7-------7-----|---9-------9-----|
D|-5---5---5---5---|-5---5---5---5---|-8---8---8---8---|-10--10--10--10--|
A|-----------------|-----------------|-----------------|-----------------|
D|-----------------|-----------------|-----------------|-----------------|
(x2)

Guitar 2
e|-----------------|-----------------|-----------------|-----------------|
B|-----------------|-----------------|-----------------|-----------------|
G|-----------------|-----------------|-----------------|-----------------|
D|-5-5-5-x-x-x-5-x-|-x-x-5-x-x-x-5-x-|-x-x-8-x-x-x-8-x-|-x-x-3-x-x-x-3-x-|
A|-5-5-5-x-x-x-5-x-|-x-x-5-x-x-x-5-x-|-x-x-8-x-x-x-8-x-|-x-x-3-x-x-x-3-x-|
D|-5-5-5-x-x-x-5-x-|-x-x-5-x-x-x-5-x-|-x-x-8-x-x-x-8-x-|-x-x-3-x-x-x-3-x-|
(x2)




Pre-Chorus 2

Guitar 1 (synth)
e|-----------------|-----------------|-----------------|-----------------|
B|-----6-----------|-----6---8-6-----|-----6-----------|-----6-----------|
G|---7-------------|---7---------7---|---7-------------|---7-------------|
D|-5---------------|-5---------------|-8---------------|-8---------------|
A|-----------------|-----------------|-----------------|-----------------|
D|-----------------|-----------------|-----------------|-----------------|

Guitar 2
e|-----------------|-----------------|-----------------|-----------------|
B|-----------------|-----------------|-----------------|-----------------|
G|-----------------|-----------------|-----------------|-----------------|
D|-1---------------|-1-------5-------|-3---------------|-----------------|
A|-1---------------|-1-------5-------|-3---------------|-1-1-1-3-3-3-5-5-|
D|-1---------------|-1-------5-------|-3---------------|-----------------|




Chorus 2

Guitar 2
e|-----------------|-----------------|-----------------|-----------------|
B|-----------------|-----------------|-----------------|-----------------|
G|-----------------|-----------------|-----------------|-----------------|
D|-5-5-5-5-5-5-5-5-|-1-1-1-1-1-1-1-1-|-8-8-8-8-8-8-8-8-|-----------------|
A|-5-5-5-5-5-5-5-5-|-1-1-1-1-1-1-1-1-|-8-8-8-8-8-8-8-8-|-----------------|
D|-5-5-5-5-5-5-5-5-|-1-1-1-1-1-1-1-1-|-8-8-8-8-8-8-8-8-|-8-8-7-7-5-5-3-3-|

e|-----------------|-----------------|-----------------|-----------------|
B|-----------------|-----------------|-----------------|-----------------|
G|-----------------|-----------------|-----------------|-----------------|
D|-5-5-5-5-5-5-5-5-|-1-1-1-1-1-1-1-1-|-8-8-8-8-8-8-8-8-|-8-8-8-8-8-8-8-8-|
A|-5-5-5-5-5-5-5-5-|-1-1-1-1-1-1-1-1-|-8-8-8-8-8-8-8-8-|-8-8-8-8-8-8-8-8-|
D|-5-5-5-5-5-5-5-5-|-1-1-1-1-1-1-1-1-|-8-8-8-8-8-8-8-8-|-8-8-8-8-8-8-8-8-|

e|-----------------|-----------------|-----------------|-----------------|
B|-----------------|-----------------|-----------------|-----------------|
G|-----------------|-----------------|-----------------|-----------------|
D|-5-5-5-5-5-5-5-5-|-1-1-1-1-1-1-1-1-|-8-8-8-8-8-8-8-8-|-----------------|
A|-5-5-5-5-5-5-5-5-|-1-1-1-1-1-1-1-1-|-8-8-8-8-8-8-8-8-|-----------------|
D|-5-5-5-5-5-5-5-5-|-1-1-1-1-1-1-1-1-|-8-8-8-8-8-8-8-8-|-8-8-7-7-5-5-3-3-|

e|-----------------|-----------------|
B|-----------------|-----------------|
G|-----------------|-----------------|
D|-1-x-x-1-x-x-1-x-|-3-3-3-3-3-3-3-3-|
A|-1-x-x-1-x-x-1-x-|-----------------|
D|-1-x-x-1-x-x-1-x-|-----------------|




Bridge

Guitar 2
e|-----------------|-----------------|-----------------|-----------------|
B|-----------------|-----------------|-----------------|-----------------|
G|-----------------|-----------------|-----------------|-----------------|
D|-----------------|-----------------|-0-----0-----0---|---0-------------|
A|-5---3-5-----5---|-3-5-----0-0-0-0-|---1-3--1------1-|-3---1---0-0-0-0-|
D|---5-----5-----5-|-----5-----------|-----------------|-----------------|
(x3)

e|-----------------|-----------------|
B|-----------------|-----------------|
G|-----------------|-----------------|
D|-----------------|-----------------|
A|-------3-3-3-1-1-|-------3-3-3-1-1-|
D|-1-1-1-----------|-3-3-3-----------|

Guitar 1 (fades in after 4 measures)
                                      /// /// /// ///   /// /// /// ///
e|-----------------|-----------------|-----------------|-----------------|
B|-----------------|-----------------|-3---3---3---3---|-3---3---6---6---|
G|-----------------|-----------------|-----------------|-----------------|
D|-----------------|-----------------|-----------------|-----------------|
A|-----------------|-----------------|-----------------|-----------------|
D|-----------------|-----------------|-----------------|-----------------|

  /// /// /// ///   /// /// /// ///   /// /// /// ///   /// /// /// ///
e|-----------------|-----------------|-----------------|-----------------|
B|-8---8---8---8---|-8---8---6---6---|-3---3---3---3---|-3---3---3---7---|
G|-----------------|-----------------|-----------------|-----------------|
D|-----------------|-----------------|-----------------|-----------------|
A|-----------------|-----------------|-----------------|-----------------|
D|-----------------|-----------------|-----------------|-----------------|

  /// /// /// ///   /// /// /// ///
e|-----------------|-----------------|
B|-8---8---8---8---|-10--10b-10b-10b-|
G|-----------------|-----------------|
D|-----------------|-----------------|
A|-----------------|-----------------|
D|-----------------|-----------------|




Intro is played once (guitar 1 only) then...




Chorus 3

Guitar 2
e|-----------------|-----------------|-----------------|-----------------|
B|-----------------|-----------------|-----------------|-----------------|
G|-----------------|-----------------|-----------------|-----------------|
D|-5-5-5-5-5-5-5-5-|-1-1-1-1-1-1-1-1-|-8-8-8-8-8-8-8-8-|-----------------|
A|-5-5-5-5-5-5-5-5-|-1-1-1-1-1-1-1-1-|-8-8-8-8-8-8-8-8-|-----------------|
D|-5-5-5-5-5-5-5-5-|-1-1-1-1-1-1-1-1-|-8-8-8-8-8-8-8-8-|-8-8-7-7-5-5-3-3-|

e|-----------------|-----------------|-----------------|-----------------|
B|-----------------|-----------------|-----------------|-----------------|
G|-----------------|-----------------|-----------------|-----------------|
D|-5-5-5-5-5-5-5-5-|-1-1-1-1-1-1-1-1-|-8-8-8-8-8-8-8-8-|-8-8-8-8-8-8-8-8-|
A|-5-5-5-5-5-5-5-5-|-1-1-1-1-1-1-1-1-|-8-8-8-8-8-8-8-8-|-8-8-8-8-8-8-8-8-|
D|-5-5-5-5-5-5-5-5-|-1-1-1-1-1-1-1-1-|-8-8-8-8-8-8-8-8-|-8-8-8-8-8-8-8-8-|

e|-----------------|-----------------|-----------------|-----------------|
B|-----------------|-----------------|-----------------|-----------------|
G|-----------------|-----------------|-----------------|-----------------|
D|-5-5-5-5-5-5-5-5-|-1-1-1-1-1-1-1-1-|-8-8-8-8-8-8-8-8-|-----------------|
A|-5-5-5-5-5-5-5-5-|-1-1-1-1-1-1-1-1-|-8-8-8-8-8-8-8-8-|-----------------|
D|-5-5-5-5-5-5-5-5-|-1-1-1-1-1-1-1-1-|-8-8-8-8-8-8-8-8-|-8-8-7-7-5-5-3-3-|

(don't play the part below the second time)
e|-----------------|-----------------|
B|-----------------|-----------------|
G|-----------------|-----------------|
D|-1-x-x-1-x-x-1-x-|-1-x-x-1-x-x-1-x-|
A|-1-x-x-1-x-x-1-x-|-1-x-x-1-x-x-1-x-|
D|-1-x-x-1-x-x-1-x-|-1-x-x-1-x-x-1-x-|
(x2)




Outro

Guitar 2 (hold the last power chord)
e|-----------------|-----------------|-----------------|-----------------|
B|-----------------|-----------------|-----------------|-----------------|
G|-----------------|-----------------|-----------------|-----------------|
D|-----------------|-----------------|-5---------------|-----------------|
A|-------3-3-3-1-1-|-------3-3-3-1-1-|-5---------------|-----------------|
D|-1-1-1-----------|-3-3-3-----------|-5---------------|-----------------|

| /  slide up
| \  slide down
| h  hammer-on
| p  pull-off
| ~  vibrato
| +  harmonic
| x  Mute note
===========================================================================
Добавлено: 10.03.2012
Другие материалы по этой песне:
  • Аккорды и текст

Страница создана 10.03.2012
http://primanota.ru/anberlin/dissapear-chords.htm
Привет, Гость.
Предлагаем пройти революционный курс по гитаре.
Подарок от PrimaNota.Ru, забирай!