PrimaNota.ru - самый крупный в мире бесплатный архив песенных текстов, аккордов, табулатур и нот


Amon Amarth - With Oden On Our Side - текст песни, таба, видео

Регистрация Запомнить меня
Войти через:  Facebook Google Twitter Vk Yandex Mail.ru

Amon Amarth - With Oden On Our Side - текст песни, таба, видео

Печатать
Просмотров: 303
Уроки эстрадного вокала в Санкт-Петербурге
Авторы: Ted Lundström, Johan Söderberg, Olavi Mikkonen, Fredrik Andersson, Johan Hegg

Song:   With Oden on Our Side
Artist: Amon Amarth
Album:  With Oden on Our Side
Tuning  (low to high): B F# B E G# C#
Tab By: Tiller (Ti1ler@yahoo.com)

I saw there was a GuitarPro of this song, but like some people out there
i dont have that program. so i just figured this out on my own, then i 
thought id submit it for anyone else who wants to play it but either
cant or doesnt want to get GuitarPro. any questions/corrections email
me or comment here. ENJOY!




//-after note means fast picking

.  -Palm Mute








Intro(0:00-0:30)-Both Guitars
C#-----------------------------------------------------------------------|
G#-----------------------------------------------------------------------|
E -----------------------------------------------------------------------|
B -----------------------------------------------------------------------|
F#-------------5//--------------8//--------------3//--------------3//7//-|
B –0-000-0-0-0------0-000-0-0-0------0-000-0-0-0------0-000-0-0-0--------|
   . ... . . .      . ... . . .      . ... . . .      . ... . . .         






Verse Riff 1(0:30-0:45)-Guitar 1
C#-----------------------------------------------------------------------|
G#-----------------------------------------------------------------------|
E -----------------------------------------------------------------------|
B -----------------5------5-7-8-7-5-7-5----------------------------------|
F#-5--5-7-8-7--7-8---8--8---------------8--------------------------------|
B –----------------------------------------------------------------------|

Verse Riff 1-Guitar 2
C#-----------------------------------------------------------------------|
G#-----------------------------------------------------------------------|
E -----------------------------------------------------------------------|
B -----------------------------------------------------------------------|
F#-0-------------------------------------3------------5------------------|
B –0-------------------------------------3------------5------------------|






Verse Riff 2(0:45-1:15)-Guitar 1
C#-----------------------------------------------------------------------|
G#-----------------------------------------------------------------------|
E -----------------------------------------------------------------------|
B -----------------5------5-7-8-7-5-7-5----------------------------------|
F#-5--5-7-8-7--7-8---8--8---------------8--------------------------------|
B –----------------------------------------------------------------------|

Verse Riff 2-Guitar 2
C#-----------------------------------------------------------------------|
G#-----------------------------------------------------------------------|
E -----------------------------------------------------------------------|
B -----------------------------------------------------------------------|
F#-----------------------------------------------------------------------|
B -0-0-0-0-0-0-0-0-0-0-0-0-0-0-0-0-0-0-0-0-0-0-0-0-----------------------|
   . . . . . . . . . . . . . . . . . . . . . . . . 

Verse Riff 2-Guitar 2 cont.
C#-----------------------------------------------------------------------|
G#-----------------------------------------------------------------------|
E -----------------------------------------------------------------------|
B -----------------------------------------------------------------------|
F#-----------------------------------------------------------------------|
B -3-3-3-3-3-3-3-3-3-3-3-3-5-5-5-5-5-5-5-5-5-5-5-5-----------------------|
   . . . . . . . . . . . . . . . . . . . . . . . . 






Chorus Riff(1:15-1:45)-Guitar 1
C#-----------------------------------------------------------------------|
G#-----------------------------------------------------------------------|
E -----------------------------------------------------------------------|
B ---------5//-7//---------5//-7//-----10//-----7//-5//------------------|
F#-5//-8//---------5//-8//---------8//------7//---------7//--------------|
B -----------------------------------------------------------------------|

Chorus Riff-Guitar 2 Harmony
C#-----------------------------------------------------------------------|
G#-----------------------------------------------------------------------|
E -----------------------------------------------------------------------|
B -----------------------------------------------------------------------|
F#-------------------------------------3//-------------------------------|
B -0//-3//-5//-7//-0//-3//-5//-7//-3//-----2//-7//-5//-2//---------------|






Intro Riff(1:45-2:15)-Both Guitars
C#-----------------------------------------------------------------------|
G#-----------------------------------------------------------------------|
E -----------------------------------------------------------------------|
B -----------------------------------------------------------------------|
F#-------------5//--------------8//--------------3//--------------3//7//-|
B –0-000-0-0-0------0-000-0-0-0------0-000-0-0-0------0-000-0-0-0--------|
   . ... . . .      . ... . . .      . ... . . .      . ... . . .   





Break 1(2:15-2:30)-Guitar 1
C#-----------------------------------------------------------------------|
G#-----------------------------------------------------------------------|
E -----------------------------------------------------------------------|
B -----------------------5---------5-7-8-7-5-7-5-------------------------|
F#-------5-7-8-------7-8---------8---------------8-----------------------|
B –0-0-0-------0-0-0-------0-0-0-----------------------------------------|
   . . .       . . .       . . . 

Break 1-Guitar 2
C#-----------------------------------------------------------------------|
G#-----------------------------------------------------------------------|
E -----------------------------------------------------------------------|
B -----------------------------------------------------------------------|
F#-0-0-0-------0-0-0-------0-0-0-----------------------------------------|
B –0-0-0-------0-0-0-------0-0-0-------8-7-6-7-6-3-----------------------|              
   . . .       . . .       . . . 






Verse Riff 1(2:30-2:45)-Guitar 1
C#-----------------------------------------------------------------------|
G#-----------------------------------------------------------------------|
E -----------------------------------------------------------------------|
B -----------------5------5-7-8-7-5-7-5----------------------------------|
F#-5--5-7-8-7--7-8---8--8---------------8--------------------------------|
B –----------------------------------------------------------------------|

Verse Riff 1-Guitar 2
C#-----------------------------------------------------------------------|
G#-----------------------------------------------------------------------|
E -----------------------------------------------------------------------|
B -----------------------------------------------------------------------|
F#-0-------------------------------------3------------5------------------|
B –0-------------------------------------3------------5------------------|







Verse Riff 2(2:45-3:00)-Guitar 1
C#-----------------------------------------------------------------------|
G#-----------------------------------------------------------------------|
E -----------------------------------------------------------------------|
B -----------------5------5-7-8-7-5-7-5----------------------------------|
F#-5--5-7-8-7--7-8---8--8---------------8--------------------------------|
B –----------------------------------------------------------------------|

Verse Riff 2-Guitar 2
C#-----------------------------------------------------------------------|
G#-----------------------------------------------------------------------|
E -----------------------------------------------------------------------|
B -----------------------------------------------------------------------|
F#-----------------------------------------------------------------------|
B -0-0-0-0-0-0-0-0-0-0-0-0-0-0-0-0-0-0-0-0-0-0-0-0-----------------------|
   . . . . . . . . . . . . . . . . . . . . . . . . 

Verse Riff 2-Guitar 2 cont.
C#-----------------------------------------------------------------------|
G#-----------------------------------------------------------------------|
E -----------------------------------------------------------------------|
B -----------------------------------------------------------------------|
F#-----------------------------------------------------------------------|
B -3-3-3-3-3-3-3-3-3-3-3-3-5-5-5-5-5-5-5-5-5-5-5-5-----------------------|
   . . . . . . . . . . . . . . . . . . . . . . . . 






Break 2-(3:00-3:30)-Guitar 1 and 2 (Guitar 1 only plays notes on B string)
C#-----------------------------------------------------------------------|
G#-----------------------------------------------------------------------|
E -----------------------------------------------------------------------|
B -------------------8-7-5-------------------8-7-5-----------------------|
F#-----------------------------------------------------------------------|
B -0-0-0-0-0-0-0-0-0-8-7-5-0-0-0-0-0-0-0-0-0-8-7-5-----------------------|

C#-----------------------------------------------------------------------|
G#-----------------------------------------------------------------------|
E -----------------------------------------------------------------------|
B -------------------------------------8-7-5-7-5-3-----------------------|
F#-----------------------------------------------------------------------|
B -3-3-3-3-3-3-3-3-3-3-3-3-5-5-5-5-5-5-8-7-5-7-5-3-----------------------|






Break 3 Riff 1(3:30-3:45) Guitar 1- E and G# strings. Guitar 2- B and F#.
C#-----------------------------------------------------------------------|
G#-----3-5-------3-5---8-------5-3---------------------------------------|
E -3-6-------3-6-----6----5--5-----5-------------------------------------|
B -----------------------------------------------------------------------|
F#-3-3-333-3~3-3-----3~6~~~~~1~~~~~~-------------------------------------|
B -3-3-333-3~3-3-333-3~6~~~~~1~~~~~~-------------------------------------|
       ...       ...


Break 3 Riff 2(3:45-4:00) Guitar 1    
C#-----------------------------------------------------------------------|
G#-----3-5-------3-5---8-------5-3---------------------------------------|
E -3-6-------3-6-----6----5--5-----5-------------------------------------|
B -----------------------------------------------------------------------|
F#-----------------------------------------------------------------------|
B -----------------------------------------------------------------------|


Break 3 Riff 2 -Guitar 2 
C#-----------------------------------------------------------------------|
G#-----------------------------------------------------------------------|
E -----------------------------------------------------------------------|
B -----------------------------------------------------------------------|
F#-----------------------------------------------------------------------|
B -3-3-3-3-3-3-3-3-3-3-3-3-3-3-3-3-3-3-3-3-3-3-3-3-----------------------|
   . . . . . . . . . . . . . . . . . . . . . . . .  
C#-----------------------------------------------------------------------|
G#-----------------------------------------------------------------------|
E -----------------------------------------------------------------------|
B -----------------------------------------------------------------------|
F#-----------------------------------------------------------------------|
B -6-6-6-6-6-6-6-6-6-6-6-6-1-1-1-1-1-1-1-1-1-1-1-1-----------------------|
   . . . . . . . . . . . . . . . . . . . . . . . .





Chorus Riff(4:00-4:30)-Guitar 1
C#-----------------------------------------------------------------------|
G#-----------------------------------------------------------------------|
E -----------------------------------------------------------------------|
B ---------5//-7//---------5//-7//-----10//-----7//-5//------------------|
F#-5//-8//---------5//-8//---------8//------7//---------7//--------------|
B -----------------------------------------------------------------------|

Chorus Riff-Guitar 2 Harmony
C#-----------------------------------------------------------------------|
G#-----------------------------------------------------------------------|
E -----------------------------------------------------------------------|
B -----------------------------------------------------------------------|
F#-------------------------------------3//-------------------------------|
B -0//-3//-5//-7//-0//-3//-5//-7//-3//-----2//-7//-5//-2//---------------| 





Outro(4:30-4:34)Both Guitars
C#-----------------------------------------------------------------------|
G#-----------------------------------------------------------------------|
E -----------------------------------------------------------------------|
B -----------------------------------------------------------------------|
F#-0-000-0-0-0-----------------------------------------------------------|
B -0-000-0-0-0-----------------------------------------------------------|  
   . ... . . . 
Добавлено: 22.02.2012
Другие материалы по этой песне:

Страница создана 22.02.2012
http://primanota.ru/amon-amarth/with-oden-on-our-side-chords.htm
Привет, Гость.
Предлагаем пройти революционный курс по гитаре.
Подарок от PrimaNota.Ru, забирай!