PrimaNota.ru - самый крупный в мире бесплатный архив песенных текстов, аккордов, табулатур и нот


Amon Amarth - Once Sent From The Golden Hall - текст песни, таба, видео

Регистрация Запомнить меня
Войти через:  Facebook Google Twitter Vk Yandex Mail.ru

Amon Amarth - Once Sent From The Golden Hall - текст песни, таба, видео

Печатать
Просмотров: 134
Авторы музыки: Olavi Mikkonen
Авторы текста: Johan Hegg
Artist: Amon Amarth
Song: Once Sent From the Golden Hall
Album: Once Sent From the Golden Hall

transcribed by:  Adam Oettmeier  :  odog502@aol.com

Date last modified:  May 25, 2003

Tuning:  Down two steps to C

notation:
^   =  bend [ ^ = half, ^^ = whole, etc. ]
^r  =  bend and release
x   =  mute with fret-hand
*   =  mute with palm-hand
X\\ =  pick slide
h   =  hammer-on
p   =  pull-off
~   =  vibrato
t   =  tap-on
/   =  slide up
\   =  slide down
h.  =  harmonics
ah  =  artificial harmonic
(9) =  ghost note
tm  =  trem picking
tr  =  trill

  Riff 1
  (0:00)             
C :---------------------------------------------------|
G :---------------------------------------------------|
D#:---------------------------------------------------|
A#:-----------------7---------------------------------|
F :-------9---------------10--------9-----7-----7--9--|
C :-7--7-----7-7-7-----7------7--7-----7-----7--------|
    *  *     * * *     *      *  *     *     *

  Riff 1 (cont)
C :------------------------------------------------------|
G :------------------------------------------------------|
D#:------------------------------------------------------|
A#:-----------------7------------------------------------|
F :-------9---------------10--------10-----10-----9--10--|
C :-0--0-----0-0-0-----0------0--0------0------0---------|
    *  *     * * *     *      *  *      *      *

  Riff 2
  (0:11)
C :---------------------------|
G :---------------------------|
D#:---------------------------|
A#:9-----------------------7--|
F :9-----------------------7--|
C :7---7-7-7-7-7-7-7-7-7-7-5--|
       * * * * * * * * * *        

  Riff 2 (cont)
C :---------------------------|
G :---------------------------|
D#:---------------------------|
A#:9-----------------------7--|
F :9-----------------------7--|
C :7---7-7-7-7-7-7-7-7-7-7-5--|
       * * * * * * * * * *     

  Riff 2 (cont)
C :--------------------------------------------------------|
G :--------------------------------------------------------|
D#:--------------------------------------------------------|
A#:2-------------------------------------------------------|
F :2--------------10------10----------10------10------9--10|
C :0--0-0-0-0-0-0-----0-0-----0-0-0-0-----0-0-----0-0------|
      * * * * * *     * *     * * * *     * *     * *

  Riff 3
  (0:30)
C :------------------------------|
G :------------------------------|
D#:------------------------------|
A#:9---7-9---7--9----------------|
F :-----------------10---9-10----|
C :------------------------------|
   tm............................

  Riff 3 (cont)
C :------------------------------|
G :------------------------------|
D#:-------------------------9----|
A#:11---9-11---9--11-------------|
F :------------------------------|
C :------------------------------|
   tm............................

  Riff 4 (played with Riff 3)
  (0:30)
C :------------------------------|
G :------------------------------|
D#:------------------------------|
A#:------------------------------|
F :-----------------7------------|
C :7-----------------------------|
   tm............................

  Riff 4 (cont)
C :------------------------------|
G :------------------------------|
D#:------------------------------|
A#:------------------------------|
F :-----------------9------------|
C :5-----------------------------|
   tm............................

  Riff 5
  (1:20)
C :----------------------------------------------------|
G :----------------------------------------------------|
D#:----------------------------------------------------|
A#:----------------------------------------------------|
F :---9-----9-----9-----9-----10-----10-----10-----10--|
C :7-----7-----7-----7-----7------7------7------7------|
   *     *     *     *     *      *      *      *

  Riff 5 (cont)                 End 1, 2, 3
C :----------------------------|------------------------|
G :----------------------------|------------------------|
D#:----------------------------|------------------------|
A#:----------------------------|------------------------|
F :---10-----10-----10-----10--|---9-----9-----7-----7--|
C :0------0------0------0------|5-----5-----5-----5-----|
   *      *      *      *       *     *     *     *

  Riff 5 (cont)
   End 4
C :------------------------|
G :------------------------|
D#:------------------------|
A#:12----------11----------|
F :------------------------|
C :------------------------|
   tm......................


  Riff 6 (played with Riff 5)
  (1:30)
C :----------------------------------------------------|
G :----------------------------------------------------|
D#:----------------------------------------------------|
A#:9---------------------------------------------------|
F :9---------------------------------------------------|
C :7---------------------------------------------------|

  Riff 6 (cont)                 End 1
C :----------------------------|------------------------|
G :----------------------------|------------------------|
D#:----------------------------|------------------------|
A#:2---------------------------|7-----------------------|
F :2---------------------------|7-----------------------|
C :0---------------------------|5-----------------------|

  Riff 6 (cont)
   End 2
C :------------------------|
G :------------------------|
D#:------------------------|
A#:7--7--7--7--7--7--7--7--|
F :7--7--7--7--7--7--7--7--|
C :5--5--5--5--5--5--5--5--|
   *  *  *  *  *  *  *  *

  Riff 7
  (2:01)                               End 1, 3  End 2, 4
C :------------------------------------|-----|   |-----|
G :------------------------------------|-----|   |-----|
D#:------------------------------------|-----|   |-----|
A#:-------------5----------------------|-----|   |-----|
F :-----5---------------6-------5------|-----|   |-----|
C :3---------3-------3-------3-------3-|6----|   |1----|

  Riff 8 (played with Riff 7)
  (2:01)                               End 1, 3  End 2, 4 
C :------------------------------------|-----|   |-----|
G :------------------------------------|-----|   |-----|
D#:------------------------------------|-----|   |-----|
A#:5-----------------------------------|8----|   |3----|
F :5-----------------------------------|8----|   |3----|
C :3-----------------------------------|6----|   |1----|

  Riff 9
  (2:12)
C :--------------------------------------------|
G :--------------------------------------------|
D#:--------------------------------------------|
A#:-------------9------------------------------|
F :-----9---------------10-------9-------------|
C :7---------7-------7--------7-------7--10----|

   Riff 10 (played with Riff 9)
C :--------------------------------------------|
G :--------------------------------------------|
D#:--------------------------------------------|
A#:9-------------------------------------7-----|
F :9-------------------------------------7-----|
C :7-------------------------------------5-----|


The solo has a lot of repitious parts so I will
tab the whole solo except for the repititions.
Im sure you'll know what parts to repeat.
I even divided the solo into "parts" to make it easier.

  Solo Part 1
  (2:41)
C :--------------------------------------------------|
G :--------------------------------------------------|
D#:--------------------------------------------------|
A#:7-9--9--9--9-9-7-9--9--9--9-9-9-11--11--11--11-11-|
F :--------------------------------------------------|
C :--------------------------------------------------|
    h              h              h

  Solo Part 1 (cont)
C :----------------------------------------|
G :----------------------------------------|
D#:----------------------------------------|
A#:9-11--11--11--11-11-9-11~---------------|
F :----------------------------------------|
C :----------------------------------------|
    h                   h

  Solo Part 2
  (3:01)
C :--------------------------------------------|
G :12--12--12--10--12--12--10--12--12--10--12--|
D#:--------------------------------------------|
A#:--------------------------------------------|
F :--------------------------------------------|
C :--------------------------------------------|

  Solo Part 2 (cont)
C :--------------------|
G :10--12--10--12--10--|
D#:--------------------|
A#:--------------------|
F :--------------------|
C :--------------------|

  Solo Part 2 (cont)
C :--------------------------------------------|
G :12--12--12--10--12--12--10--12--12--10--12--|
D#:--------------------------------------------|
A#:--------------------------------------------|
F :--------------------------------------------|
C :--------------------------------------------|

  Solo Part 2 (cont)
C :10--12-10-12-10-12-10----|
G :----------------------12-|
D#:-------------------------|
A#:-------------------------|
F :-------------------------|
C :-------------------------|
         p     p     p

  Solo Part 3
  (3:06)
C :--------------------------------------------|
G :14--14--14--12--14--14--12--14--14--12--14--|
D#:--------------------------------------------|
A#:--------------------------------------------|
F :--------------------------------------------|
C :--------------------------------------------|

  Solo Part 3 (cont)
C :12--14-12-14-12-14-12----|
G :----------------------12-|
D#:-------------------------|
A#:-------------------------|
F :-------------------------|
C :-------------------------|
         p     p     p

  Solo Part 4
  (3:11)
C :14-------14-------14----|
G :---12-12----12-12----12-|
D#:------------------------|
A#:------------------------|
F :------------------------|
C :------------------------|

  Solo Part 5
  (3:16)
C :--------------------------------------------------------|
G :15^--15-17-15--14-17-14------15-------------------------|
D#:-------------------------17------18--14--16-14-16-14----|
A#:-----------------------------------------------------17-|
F :--------------------------------------------------------|
C :--------------------------------------------------------|
          h  p      h  p                      p     p

  Solo Part 5 (cont)
C :----------------------------------------------------|
G :----------------------------------------------------|
D#:14--------------------------------------------------|
A#:----18--15--17-15-17-15-----14--16--17--14--16--17--|
F :------------------------18--------------------------|
C :----------------------------------------------------|
                 p     p

  Solo Part 5 (cont)
C :-----------------------------------------------------|
G :-----------------------------------------------------|
D#:14------14--16--14--16--14--16--14--16--14--16~------|
A#:----17-----------------------------------------------|
F :-----------------------------------------------------|
C :-----------------------------------------------------|

  Riff 11 (played with solo)
  (2:41)
C :-----------------------------------------------------|
G :-----------------------------------------------------|
D#:-----------------------------------------------------|
A#:9--------9--------7--------7-------11----------------|
F :9--------9--------7--------7-------11----------------|
C :7--------7--------5--------5--------9----------------|

  Riff 12 (played with solo)
  (3:01)
C :-----------------------------------------------------|
G :-----------------------------------------------------|
D#:-----------------------------------------------------|
A#:-----------------------------------------------------|
F :-----------------------------------------------------|
C :7-----------------5-----------------9----------------|
   tm...................................................

  Riff 13
  (3:51)
C :-----------------------------------------------------|
G :-----------------------------------------------------|
D#:-----------------------------------------------------|
A#:--------------------------------------9--------------|
F :10--9--7-----------10--9--7-----------9--------------|
C :----------10--7--------------10--7----7--------------|
     
Добавлено: 03.12.2013
Другие материалы по этой песне:

Страница создана 28.03.2012
http://primanota.ru/amon-amarth/once-sent-from-the-golden-hall-chords.htm
Привет, Гость.
Предлагаем пройти революционный курс по гитаре.
Подарок от PrimaNota.Ru, забирай!