PrimaNota.ru - самый крупный в мире бесплатный архив песенных текстов, аккордов, табулатур и нот


Amon Amarth - Prediction Of Warfare - текст песни, таба, бас-таба, драм-таба, видео

Регистрация Запомнить меня
Войти через:  Facebook Google Twitter Vk Yandex Mail.ru

Amon Amarth - Prediction Of Warfare - текст песни, таба, бас-таба, драм-таба, видео

Печатать
Просмотров: 261
Song   : Prediction of Warfare
Artist : Amon Amarth
CD     : With Oden on Our Side
Year   : 2006
Part   : Rhythm 
Tuning : BEADF#B


(Taken from the guitar pro file, I take no credit for this)

B ||-------------------------------------|------------------------------------|
F#||-------------------------------------|------------------------------------|
D ||*------------------------------------|------------------------------------|
A ||*--2----2--2--2--2--2----2--2--2--2--|--2----2--2--2--2--2----2--2--2--2--|
E ||---2----2--2--2--2--2----2--2--2--2--|--2----2--2--2--2--2----2--2--2--2--|
B ||---0----0--0--0--0--0----0--0--0--0--|--0----0--0--0--0--0----0--0--0--0--|


------------------------------------|------------------------------------|
------------------------------------|------------------------------------|
------------------------------------|------------------------------------|
--2----2--2--2--2--2----2--2--2--2--|--2----2--2--2--2--4----4--4--4--4--|
--2----2--2--2--2--2----2--2--2--2--|--2----2--2--2--2--4----4--4--4--4--|
--0----0--0--0--0--0----0--0--0--0--|--0----0--0--0--0--2----2--2--2--2--|


------------------------------------|------------------------------------|
------------------------------------|------------------------------------|
------------------------------------|------------------------------------|
--6----6--6--6--6--6----6--6--6--6--|--6----6--6--6--6--6----6--6--6--6--|
--6----6--6--6--6--6----6--6--6--6--|--6----6--6--6--6--6----6--6--6--6--|
--4----4--4--4--4--4----4--4--4--4--|--4----4--4--4--4--4----4--4--4--4--|


------------------------------------|-------------------------------------||
------------------------------------|-------------------------------------||
------------------------------------|------------------------------------*||
--6----6--6--6--6--6----6--6--6--6--|--6----6--6--6--6--6----6--6--6--6--*||
--6----6--6--6--6--6----6--6--6--6--|--6----6--6--6--6--6----6--6--6--6---||
--4----4--4--4--4--4----4--4--4--4--|--4----4--4--4--4--4----4--4--4--4---||


-------------------------------------|------------------------------------|
-------------------------------------|------------------------------------|
*------------------------------------|------------------------------------|
*--2----2--2--2--2--2----2--2--2--2--|--2----2--2--2--2--2----2--2--2--2--|
---2----2--2--2--2--2----2--2--2--2--|--2----2--2--2--2--2----2--2--2--2--|
---0----0--0--0--0--0----0--0--0--0--|--0----0--0--0--0--0----0--0--0--0--|


------------------------------------|------------------------------------|
------------------------------------|------------------------------------|
------------------------------------|------------------------------------|
--2----2--2--2--2--2----2--2--2--2--|--2----2--2--2--2--4----4--4--4--4--|
--2----2--2--2--2--2----2--2--2--2--|--2----2--2--2--2--4----4--4--4--4--|
--0----0--0--0--0--0----0--0--0--0--|--0----0--0--0--0--2----2--2--2--2--|


------------------------------------|------------------------------------|
------------------------------------|------------------------------------|
------------------------------------|------------------------------------|
--6----6--6--6--6--6----6--6--6--6--|--6----6--6--6--6--6----6--6--6--6--|
--6----6--6--6--6--6----6--6--6--6--|--6----6--6--6--6--6----6--6--6--6--|
--4----4--4--4--4--4----4--4--4--4--|--4----4--4--4--4--4----4--4--4--4--|


------------------------------------|-------------------------------------||
------------------------------------|-------------------------------------||
------------------------------------|------------------------------------*||
--6----6--6--6--6--6----6--6--6--6--|--6----6--6--6--6--6----6--6--6--6--*||
--6----6--6--6--6--6----6--6--6--6--|--6----6--6--6--6--6----6--6--6--6---||
--4----4--4--4--4--4----4--4--4--4--|--4----4--4--4--4--4----4--4--4--4---||


-------------------------------------|------------------------------|
-------------------------------------|------------------------------|
*------------------------------------|-------------------6---4------|
*--2----2--2--2--2--2----2--2--2--2--|--2----2--2--2--2--6---4---4--|
---2----2--2--2--2--2----2--2--2--2--|--2----2--2--2--2--4---2---4--|
---0----0--0--0--0--0----0--0--0--0--|--0----0--0--0--0----------2--|


------------------------------------|-------------------------------||
------------------------------------|-------------------------------||
------------------------------------|-----------------------4------*||
--6----6--6--6--6--6----6--6--6--6--|--6----6--6--6--6--6---4---4--*||
--6----6--6--6--6--6----6--6--6--6--|--6----6--6--6--6--6---2---4---||
--4----4--4--4--4--4----4--4--4--4--|--4----4--4--4--4--4-------2---||


-------------------------------------|------------------------------------|
-------------------------------------|------------------------------------|
*------------------------------------|------------------------------------|
*--2----2--2--2--2--2----2--2--2--2--|--2----2--2--2--2--2----2--2--2--2--|
---2----2--2--2--2--2----2--2--2--2--|--2----2--2--2--2--2----2--2--2--2--|
---0----0--0--0--0--0----0--0--0--0--|--0----0--0--0--0--0----0--0--0--0--|


------------------------------------|------------------------------------|
------------------------------------|------------------------------------|
------------------------------------|------------------------------------|
--2----2--2--2--2--2----2--2--2--2--|--2----2--2--2--2--4----4--4--4--4--|
--2----2--2--2--2--2----2--2--2--2--|--2----2--2--2--2--4----4--4--4--4--|
--0----0--0--0--0--0----0--0--0--0--|--0----0--0--0--0--2----2--2--2--2--|


------------------------------------|------------------------------------|
------------------------------------|------------------------------------|
------------------------------------|------------------------------------|
--6----6--6--6--6--6----6--6--6--6--|--6----6--6--6--6--6----6--6--6--6--|
--6----6--6--6--6--6----6--6--6--6--|--6----6--6--6--6--6----6--6--6--6--|
--4----4--4--4--4--4----4--4--4--4--|--4----4--4--4--4--4----4--4--4--4--|


------------------------------------|------------------------------------|
------------------------------------|------------------------------------|
------------------------------------|------------------------------------|
--6----6--6--6--6--6----6--6--6--6--|--6----6--6--6--6--6----6--6--6--6--|
--6----6--6--6--6--6----6--6--6--6--|--6----6--6--6--6--6----6--6--6--6--|
--4----4--4--4--4--4----4--4--4--4--|--4----4--4--4--4--4----4--4--4--4--|


------------------------------------|------------------------------------|
------------------------------------|------------------------------------|
------------------------------------|------------------------------------|
--2----2--2--2--2--2----2--2--2--2--|--2----2--2--2--2--2----2--2--2--2--|
--2----2--2--2--2--2----2--2--2--2--|--2----2--2--2--2--2----2--2--2--2--|
--0----0--0--0--0--0----0--0--0--0--|--0----0--0--0--0--0----0--0--0--0--|


------------------------------------|------------------------------------|
------------------------------------|------------------------------------|
------------------------------------|------------------------------------|
--2----2--2--2--2--2----2--2--2--2--|--2----2--2--2--2--4----4--4--4--4--|
--2----2--2--2--2--2----2--2--2--2--|--2----2--2--2--2--4----4--4--4--4--|
--0----0--0--0--0--0----0--0--0--0--|--0----0--0--0--0--2----2--2--2--2--|


------------------------------------|------------------------------------|
------------------------------------|------------------------------------|
------------------------------------|-------------------4----4--4--4--4--|
--6----6--6--6--6--6----6--6--6--6--|--4----4--4--4--4--4----4--4--4--4--|
--6----6--6--6--6--6----6--6--6--6--|--4----4--4--4--4--2----2--2--2--2--|
--4----4--4--4--4--4----4--4--4--4--|--2----2--2--2--2-------------------|


------------------------------------|------------------------------------|
------------------------------------|------------------------------------|
------------------------------------|------------------------------------|
--2----2--2--2--2--2----2--2--2--2--|--2----2--2--2--2--2----2--2--2--2--|
--2----2--2--2--2--2----2--2--2--2--|--2----2--2--2--2--2----2--2--2--2--|
--0----0--0--0--0--0----0--0--0--0--|--0----0--0--0--0--0----0--0--0--0--|


|-------------------------------------|------------------------------------|
|-------------------------------------|------------------------------------|
|*------------------------------------|------------------------------------|
|*--6----6--6--6--6--6----6--6--6--6--|--8----8--8--8--8--4----4--4--4--4--|
|---6----6--6--6--6--6----6--6--6--6--|--8----8--8--8--8--4----4--4--4--4--|
|---4----4--4--4--4--4----4--4--4--4--|--6----6--6--6--6--2----2--2--2--2--|


------------------------------------|-------------------------------------||
------------------------------------|-------------------------------------||
------------------------------------|-------------------4----4--4--4--4--*||
--2----2--2--2--2--2----2--2--2--2--|--2----2--2--2--2--4----4--4--4--4--*||
--2----2--2--2--2--2----2--2--2--2--|--2----2--2--2--2--2----2--2--2--2---||
--0----0--0--0--0--0----0--0--0--0--|--0----0--0--0--0--------------------||


------------------------------------|------------------------------------|
------------------------------------|------------------------------------|
------------------------------------|------------------------------------|
--6----6--6--6--6--6----6--6--6--6--|--8----8--8--8--8--4----4--4--4--4--|
--6----6--6--6--6--6----6--6--6--6--|--8----8--8--8--8--4----4--4--4--4--|
--4----4--4--4--4--4----4--4--4--4--|--6----6--6--6--6--2----2--2--2--2--|


------------------------------------|------------------------------------|
------------------------------------|------------------------------------|
------------------------------------|-------------------4----4--4--4--4--|
--2----2--2--2--2--2----2--2--2--2--|--2----2--2--2--2--4----4--4--4--4--|
--2----2--2--2--2--2----2--2--2--2--|--2----2--2--2--2--2----2--2--2--2--|
--0----0--0--0--0--0----0--0--0--0--|--0----0--0--0--0-------------------|


------------------------------------|------------------------------------|
------------------------------------|------------------------------------|
------------------------------------|------------------------------------|
------------------------------------|------------------------------------|
------------------------------------|------------------------------------|
--4----4--4--6--7--4----4--4--6--7--|--4----4--4--6--7--4----4--4--6--7--|


------------------------------------|------------------------------------|
------------------------------------|------------------------------------|
------------------------------------|------------------------------------|
------------------------------------|------------------------------------|
------------------------------------|--7----7--7--6--4--6----6--6--4-----|
--4----4--4--6--7--4----4--4--6--7--|---------------------------------7--|


------------------------------------|------------------------------------|
------------------------------------|------------------------------------|
------------------------------------|------------------------------------|
------------------------------------|------------------------------------|
------------------------------------|------------------------------------|
--4----4--4--6--7--4----4--4--6--7--|--4----4--4--6--7--4----4--4--6--7--|


------------------------------------|------------------------------------|
------------------------------------|------------------------------------|
------------------------------------|------------------------------------|
------------------------------------|------------------------------------|
------------------------------------|--7----7--7--6--4--6----6--6--4-----|
--4----4--4--6--7--4----4--4--6--7--|---------------------------------7--|


------------------------------------|------------------------------------|
------------------------------------|------------------------------------|
------------------------------------|------------------------------------|
------------------------------------|------------------------------------|
--7----7--7--6--4--6----6--6--4-----|--7----7--7--6--4--6----6--6--4-----|
---------------------------------7--|---------------------------------7--|


------------------------------------|-------------------|
------------------------------------|-------------------|
------------------------------------|-------------------|
------------------------------------|--6----------------|
--7----7--7--6--4--6----6--6--4-----|--6----------------|
---------------------------------7--|--4----------------|


|-------------------------------------|------------------------------|
|-------------------------------------|------------------------------|
|*------------------------------------|-------------------6---4------|
|*--2----2--2--2--2--2----2--2--2--2--|--2----2--2--2--2--6---4---4--|
|---2----2--2--2--2--2----2--2--2--2--|--2----2--2--2--2--4---2---4--|
|---0----0--0--0--0--0----0--0--0--0--|--0----0--0--0--0----------2--|


------------------------------------|-------------------------------||
------------------------------------|-------------------------------||
------------------------------------|-----------------------4------*||
--6----6--6--6--6--6----6--6--6--6--|--6----6--6--6--6--6---4---4--*||
--6----6--6--6--6--6----6--6--6--6--|--6----6--6--6--6--6---2---4---||
--4----4--4--4--4--4----4--4--4--4--|--4----4--4--4--4--4-------2---||


------------------------------------|------------------------------------|
------------------------------------|------------------------------------|
------------------------------------|------------------------------------|
------------------------------------|------------------------------------|
------------------------------------|------------------------------------|
--0----0--0--0--0--0----0--0--0--0--|--0----0--0--0--0--0----0--0--0--0--|


------------------------------------|------------------------------------|
------------------------------------|------------------------------------|
------------------------------------|------------------------------------|
------------------------------------|------------------------------------|
------------------------------------|------------------------------------|
--0----0--0--0--0--0----0--0--0--0--|--0----0--0--0--0--0----0--0--0--0--|


|-------------------------------------|------------------------------------|
|-------------------------------------|------------------------------------|
|*------------------------------------|------------------------------------|
|*------------------------------------|------------------------------------|
|-------------------------------------|------------------------------------|
|---0----0--0--0--0--0----0--0--0--0--|--0----0--0--0--0--0----0--0--0--0--|


------------------------------------|------------------------------------|
------------------------------------|------------------------------------|
------------------------------------|------------------------------------|
------------------------------------|------------------------------------|
------------------------------------|------------------------------------|
--0----0--0--0--0--0----0--0--0--0--|--0----0--0--0--0--0----0--0--0--0--|


------------------------------------|------------------------------------|
------------------------------------|------------------------------------|
------------------------------------|------------------------------------|
------------------------------------|------------------------------------|
------------------------------------|------------------------------------|
--0----0--0--0--0--0----0--0--0--0--|--0----0--0--0--0--0----0--0--0--0--|


------------------------------------|-------------------------------------||
------------------------------------|-------------------------------------||
------------------------------------|------------------------------------*||
------------------------------------|------------------------------------*||
------------------------------------|-------------------------------------||
--0----0--0--0--0--0----0--0--0--0--|--0----0--0--0--0--0----0--0--0--0---||


------------------------------------|------------------------------------|
------------------------------------|------------------------------------|
------------------------------------|------------------------------------|
------------------------------------|------------------------------------|
--3----3--3--3--3--3----3--3--3--3--|--3----3--3--3--3--3----3--3--3--3--|
------------------------------------|------------------------------------|


------------------------------------|------------------------------------|
------------------------------------|------------------------------------|
------------------------------------|------------------------------------|
------------------------------------|------------------------------------|
--3----3--3--3--3--3----3--3--3--3--|--3----3--3--3--3--3----3--3--3--3--|
------------------------------------|------------------------------------|


------------------------------------|------------------------------------|
------------------------------------|------------------------------------|
------------------------------------|------------------------------------|
------------------------------------|------------------------------------|
--3----3--3--3--3--3----3--3--3--3--|--3----3--3--3--3--3----3--3--3--3--|
------------------------------------|------------------------------------|

------------------------------------|------------------------------------|
------------------------------------|------------------------------------|
------------------------------------|------------------------------------|
------------------------------------|------------------------------------|
------------------------------------|------------------------------------|
--0----0--0--0--0--0----0--0--0--0--|--0----0--0--0--0--0----0--0--0--0--|


------------------------------------|------------------------------------|
------------------------------------|------------------------------------|
------------------------------------|------------------------------------|
------------------------------------|------------------------------------|
--3----3--3--3--3--3----3--3--3--3--|--3----3--3--3--3--3----3--3--3--3--|
------------------------------------|------------------------------------|


------------------------------------|------------------------------------|
------------------------------------|------------------------------------|
------------------------------------|------------------------------------|
------------------------------------|------------------------------------|
--3----3--3--3--3--3----3--3--3--3--|--3----3--3--3--3--3----3--3--3--3--|
------------------------------------|------------------------------------|


------------------------------------|------------------------------------|
------------------------------------|------------------------------------|
------------------------------------|------------------------------------|
------------------------------------|------------------------------------|
--3----3--3--3--3--3----3--3--3--3--|--3----3--3--3--3--3----3--3--3--3--|
------------------------------------|------------------------------------|


------------------------------------|------------------------------------|
------------------------------------|------------------------------------|
------------------------------------|------------------------------------|
------------------------------------|------------------------------------|
--2----2--2--2--2--2----2--2--2--2--|--2----2--2--2--2--2----2--2--2--2--|
------------------------------------|------------------------------------|


|-------------------------------------|------------------------------------|
|-------------------------------------|------------------------------------|
|*------------------------------------|------------------------------------|
|*------------------------------------|------------------------------------|
|-------------------------------------|------------------------------------|
|---0----0--0--0--0--0----0--0--0--0--|--0----0--0--0--0--0----0--0--0--0--|


------------------------------------|------------------------------------|
------------------------------------|------------------------------------|
------------------------------------|------------------------------------|
------------------------------------|------------------------------------|
------------------------------------|------------------------------------|
--0----0--0--0--0--0----0--0--0--0--|--0----0--0--0--0--0----0--0--0--0--|


------------------------------------|------------------------------------|
------------------------------------|------------------------------------|
------------------------------------|------------------------------------|
------------------------------------|------------------------------------|
------------------------------------|------------------------------------|
--0----0--0--0--0--0----0--0--0--0--|--0----0--0--0--0--0----0--0--0--0--|


------------------------------------|-------------------------------------||
------------------------------------|-------------------------------------||
------------------------------------|------------------------------------*||
------------------------------------|------------------------------------*||
------------------------------------|-------------------------------------||
--0----0--0--0--0--0----0--0--0--0--|--0----0--0--0--0--0----0--0--0--0---||


-------------------------------------|------------------------------|
-------------------------------------|------------------------------|
*------------------------------------|-------------------6---4------|
*--2----2--2--2--2--2----2--2--2--2--|--2----2--2--2--2--6---4---4--|
---2----2--2--2--2--2----2--2--2--2--|--2----2--2--2--2--4---2---4--|
---0----0--0--0--0--0----0--0--0--0--|--0----0--0--0--0----------2--|


------------------------------------|-------------------------------||
------------------------------------|-------------------------------||
------------------------------------|-----------------------4------*||
--6----6--6--6--6--6----6--6--6--6--|--6----6--6--6--6--6---4---4--*||
--6----6--6--6--6--6----6--6--6--6--|--6----6--6--6--6--6---2---4---||
--4----4--4--4--4--4----4--4--4--4--|--4----4--4--4--4--4-------2---||


-------------------------------------|------------------------------------|
-------------------------------------|------------------------------------|
*------------------------------------|------------------------------------|
*--6----6--6--6--6--6----6--6--6--6--|--8----8--8--8--8--4----4--4--4--4--|
---6----6--6--6--6--6----6--6--6--6--|--8----8--8--8--8--4----4--4--4--4--|
---4----4--4--4--4--4----4--4--4--4--|--6----6--6--6--6--2----2--2--2--2--|


------------------------------------|-------------------------------------||
------------------------------------|-------------------------------------||
------------------------------------|-------------------4----4--4--4--4--*||
--2----2--2--2--2--2----2--2--2--2--|--2----2--2--2--2--4----4--4--4--4--*||
--2----2--2--2--2--2----2--2--2--2--|--2----2--2--2--2--2----2--2--2--2---||
--0----0--0--0--0--0----0--0--0--0--|--0----0--0--0--0--------------------||


-------------------------------------|------------------------------|
-------------------------------------|------------------------------|
*------------------------------------|-------------------6---4------|
*--2----2--2--2--2--2----2--2--2--2--|--2----2--2--2--2--6---4---4--|
---2----2--2--2--2--2----2--2--2--2--|--2----2--2--2--2--4---2---4--|
---0----0--0--0--0--0----0--0--0--0--|--0----0--0--0--0----------2--|


------------------------------------|-------------------------------||
------------------------------------|-------------------------------||
------------------------------------|-----------------------4------*||
--6----6--6--6--6--6----6--6--6--6--|--6----6--6--6--6--6---4---4--*||
--6----6--6--6--6--6----6--6--6--6--|--6----6--6--6--6--6---2---4---||
--4----4--4--4--4--4----4--4--4--4--|--4----4--4--4--4--4-------2---||


------------------------------------|------------------------------------|
------------------------------------|------------------------------------|
------------------------------------|------------------------------------|
------------------------------------|------------------------------------|
------------------------------------|------------------------------------|
--4----4--4--6--7--4----4--4--6--7--|--4----4--4--6--7--4----4--4--6--7--|


------------------------------------|------------------------------------|
------------------------------------|------------------------------------|
------------------------------------|------------------------------------|
------------------------------------|------------------------------------|
------------------------------------|--7----7--7--6--4--6----6--6--4-----|
--4----4--4--6--7--4----4--4--6--7--|---------------------------------7--|


------------------------------------|------------------------------------|
------------------------------------|------------------------------------|
------------------------------------|------------------------------------|
------------------------------------|------------------------------------|
------------------------------------|------------------------------------|
--4----4--4--6--7--4----4--4--6--7--|--4----4--4--6--7--4----4--4--6--7--|


------------------------------------|------------------------------------|
------------------------------------|------------------------------------|
------------------------------------|------------------------------------|
------------------------------------|------------------------------------|
------------------------------------|--7----7--7--6--4--6----6--6--4-----|
--4----4--4--6--7--4----4--4--6--7--|---------------------------------7--|


------------------------------------|------------------------------------|
------------------------------------|------------------------------------|
------------------------------------|------------------------------------|
------------------------------------|------------------------------------|
--7----7--7--6--4--6----6--6--4-----|--7----7--7--6--4--6----6--6--4-----|
---------------------------------7--|---------------------------------7--|



------------------------------------|---------------------||
------------------------------------|---------------------||
------------------------------------|---------------------||
------------------------------------|---------------------||
--7----7--7--6--4--6----6--6--4-----|---------------------||
---------------------------------7--|--4------------------||

Добавлено: 06.03.2012
Другие материалы по этой песне:

Страница создана 06.03.2012
http://primanota.ru/amon-amarth/prediction-of-warfare-chords.htm
Привет, Гость.
Предлагаем пройти революционный курс по гитаре.
Подарок от PrimaNota.Ru, забирай!