PrimaNota.ru - самый крупный в мире бесплатный архив песенных текстов, аккордов, табулатур и нот


Amon Amarth - Embrace Of The Endless Ocean - текст песни, таба, видео

Регистрация Запомнить меня
Войти через:  Facebook Google Twitter Vk Yandex Mail.ru

Amon Amarth - Embrace Of The Endless Ocean - текст песни, таба, видео

Печатать
Просмотров: 274
Авторы: Ted Lundström, Johan Söderberg, Olavi Mikkonen, Fredrik Andersson, Johan Hegg

This tab is in drop-D tuning from what I hear, and it sound right. Feel free to 
submit any mistakes there may be.

Tuning: DADGBe  Guitar: 1

Finger taping on intro.

Intro:
e|-------------------------------------------------------|
B|-------------------------------------------------------|
G|-------------------------------------------------------|
D|-9-4-9-4-9-4-9-4-9-4-9-4-11-4-11-4-11-4-12-4-12-4-12-4-|
A|-------------------------------------------------------|
D|-------------------------------------------------------|

e|-----------------------------------------------|
B|-----------------------------------------------|
G|-----------------------------------------------|
D|9-4-9-4-9-4-9-4-9-4-9-4-7-2-7-2-7-2-7-2-7-2-7-2|
A|-----------------------------------------------|
D|-----------------------------------------------|

e|------------------------------------------------------|
B|------------------------------------------------------|
G|9-4-9-4-9-4-9-4-9-4-9-4-11-4-11-4-11-4-12-4-12-4-12-4-|
D|------------------------------------------------------|
A|------------------------------------------------------|
D|------------------------------------------------------|

e|-----------------------------------------------|
B|-----------------------------------------------|
G|-----------------------------------------------|
D|7-2-7-2-7-2-7-2-7-2-7-2-7-2-7-2-7-2-7-2-7-2-7-2|
A|-----------------------------------------------|
D|-----------------------------------------------|

e|-------------------------------------------------------|
B|-------------------------------------------------------|
G|-------------------------------------------------------|
D|-9-4-9-4-9-4-9-4-9-4-9-4-11-4-11-4-11-4-12-4-12-4-12-4-|
A|-------------------------------------------------------|
D|-------------------------------------------------------|

e|-----------------------------------------------|
B|-----------------------------------------------|
G|-----------------------------------------------|
D|9-4-9-4-9-4-9-4-9-4-9-4-7-2-7-2-7-2-7-2-7-2-7-2|
A|-----------------------------------------------|
D|-----------------------------------------------|

e|------------------------------------------------------|
B|------------------------------------------------------|
G|9-4-9-4-9-4-9-4-9-4-9-4-11-4-11-4-11-4-12-4-12-4-12-4-|
D|------------------------------------------------------|
A|------------------------------------------------------|
D|------------------------------------------------------|

e|-----------------------------------------------|
B|-----------------------------------------------|
G|-----------------------------------------------|
D|7-2-7-2-7-2-7-2-7-2-7-2-7-2-7-2-7-2-7-2-7-2-7-2|
A|-----------------------------------------------|
D|-----------------------------------------------|

Verse 1:
e|----------------------------------------------------------|
B|----------------------------------------------------------|
G|----------------------------------------------------------|
D|----------------------------------------------------------|
A|----------2-2-2-2-2-2-2-2-2-0-0-0-2-2-2-2-2-2-2-2-2-5-5-5-|
D|0-0-4-0--4-4-4-4-4-4-4-4-4-4-4-4-4-4-4-4-4-4-4-4-4-4-7-7-7|
  ' ' ' '  ' ' ' ' ' ' ' ' ' ' ' ' ' ' ' ' ' ' ' ' ' ' ' ' '
e|--------------------------------------------------|
B|--------------------------------------------------|
G|--------------------------------------------------|
D|--------------------------------------------------|
A|7-7-7-7-7-7-7-7-7-7-4-4-4-5-5-5-5-5-5-5-5-5-4-4-4-|
D|-7-7-7-7-7-7-7-7-7-7-7-7-7-7-7-7-7-7-7-7-7-7-7-7-7|
   ' ' ' ' ' ' ' ' ' ' ' ' ' ' ' ' ' ' ' ' ' ' ' ' '
e|-------------------------------------------------|
B|-------------------------------------------------|
G|-------------------------------------------------|
D|-------------------------------------------------|
A|-2-2-2-2-2-2-2-2-2-0-0-0-2-2-2-2-2-2-2-2-2-5-5-5-|
D|4-4-4-4-4-4-4-4-4-4-4-4-4-4-4-4-4-4-4-4-4-4-7-7-7|
  ' ' ' ' ' ' ' ' ' ' ' ' ' ' ' ' ' ' ' ' ' ' ' ' '
e|--------------------------------------------------|
B|--------------------------------------------------|
G|--------------------------------------------------|
D|--------------------------------------------------|
A|7-7-7-7-7-7-7-7-7-7-4-4-4-5-5-5-5-5-5-5-5-5-4-4-4-|
D|-7-7-7-7-7-7-7-7-7-7-7-7-7-7-7-7-7-7-7-7-7-7-7-7-7|
   ' ' ' ' ' ' ' ' ' ' ' ' ' ' ' ' ' ' ' ' ' ' ' ' '
Chorus:
e|-------------------------------------------------------|
B|-------------------------------------------------------|
G|-------------------------------------------------------|
D|-9-4-9-4-9-4-9-4-9-4-9-4-11-4-11-4-11-4-12-4-12-4-12-4-|
A|-------------------------------------------------------|
D|-------------------------------------------------------|

e|-----------------------------------------------|
B|-----------------------------------------------|
G|-----------------------------------------------|
D|9-4-9-4-9-4-9-4-9-4-9-4-7-2-7-2-7-2-7-2-7-2-7-2|
A|-----------------------------------------------|
D|-----------------------------------------------|

e|------------------------------------------------------|
B|------------------------------------------------------|
G|9-4-9-4-9-4-9-4-9-4-9-4-11-4-11-4-11-4-12-4-12-4-12-4-|
D|------------------------------------------------------|
A|------------------------------------------------------|
D|------------------------------------------------------|

e|-----------------------------------------------|
B|-----------------------------------------------|
G|-----------------------------------------------|
D|7-2-7-2-7-2-7-2-7-2-7-2-7-2-7-2-7-2-7-2-7-2-7-2|
A|-----------------------------------------------|
D|-----------------------------------------------|

e|-------------------------------------------------------|
B|-------------------------------------------------------|
G|-------------------------------------------------------|
D|-9-4-9-4-9-4-9-4-9-4-9-4-11-4-11-4-11-4-12-4-12-4-12-4-|
A|-------------------------------------------------------|
D|-------------------------------------------------------|

e|-----------------------------------------------|
B|-----------------------------------------------|
G|-----------------------------------------------|
D|9-4-9-4-9-4-9-4-9-4-9-4-7-2-7-2-7-2-7-2-7-2-7-2|
A|-----------------------------------------------|
D|-----------------------------------------------|

e|------------------------------------------------------|
B|------------------------------------------------------|
G|9-4-9-4-9-4-9-4-9-4-9-4-11-4-11-4-11-4-12-4-12-4-12-4-|
D|------------------------------------------------------|
A|------------------------------------------------------|
D|------------------------------------------------------|

e|-----------------------------------------------|
B|-----------------------------------------------|
G|-----------------------------------------------|
D|7-2-7-2-7-2-7-2-7-2-7-2-7-2-7-2-7-2-7-2-7-2-7-2|
A|-----------------------------------------------|
D|-----------------------------------------------|

Verse 2:
e|-----------------------------------------------|
B|-----------------------------------------------|
G|-----------------------------------------------|
D|-----------------------------------------------|
A|0-0-2-2-2-2-2-2-2-2-2-2-2-2-2-2-2-2-2-2-2444444|
D|0-0-2-2-2-2-2-2-2-2-2-2-2-2-2-2-2-2-2-2-2444444|
  ' '   '   '   '   '   '   '   '   '   '      
e|-----------------------------------------------|
B|-----------------------------------------------|
G|-----------------------------------------------|
D|-----------------------------------------------|
A|0-0-2-2-2-2-2-2-2-2-2-2-2-2-2-2-2-2-2-2-2444444|
D|0-0-2-2-2-2-2-2-2-2-2-2-2-2-2-2-2-2-2-2-2444444|
  ' '   '   '   '   '   '   '   '   '   '      
e|-----------------------------------------------|
B|-----------------------------------------------|
G|-----------------------------------------------|
D|-----------------------------------------------|
A|0-0-2-2-2-2-2-2-2-2-2-2-2-2-2-2-2-2-2-2-2444444|
D|0-0-2-2-2-2-2-2-2-2-2-2-2-2-2-2-2-2-2-2-2444444|
  ' '   '   '   '   '   '   '   '   '   '      
e|-----------------------------------------------|
B|-----------------------------------------------|
G|-----------------------------------------------|
D|-----------------------------------------------|
A|0-0-2-2-2-2-2-2-2-2-2-2-2-2-2-2-2-2-2-2-2444444|
D|0-0-2-2-2-2-2-2-2-2-2-2-2-2-2-2-2-2-2-2-2444444|
  ' '   '   '   '   '   '   '   '   '   '      
e|-----------------------------------------------|
B|-----------------------------------------------|
G|-----------------------------------------------|
D|-----------------------------------------------|
A|0-0-2-2-2-2-2-2-2-2-2-2-2-2-2-2-2-2-2-2-2444444|
D|0-0-2-2-2-2-2-2-2-2-2-2-2-2-2-2-2-2-2-2-2444444|
  ' '   '   '   '   '   '   '   '   '   '      
e|-----------------------------------------------|
B|-----------------------------------------------|
G|-----------------------------------------------|
D|-----------------------------------------------|
A|0-0-2-2-2-2-2-2-2-2-2-2-2-2-2-2-2-2-2-2-2444444|
D|0-0-2-2-2-2-2-2-2-2-2-2-2-2-2-2-2-2-2-2-2444444|
  ' '   '   '   '   '   '   '   '   '   '      
Chorus 2:
e|---------------------------------------------------|
B|---------------------------------------------------|
G|------------------7--7-7-7-7--7-7-7-11--11-11-11-11|
D|9--9-9-9-9--9-9-9----------------------------------|
A|---------------------------------------------------|
D|---------------------------------------------------|

e|--------------------------------------------------------------------|
B|--------------------------------------------------------------------|
G|--11-11-11-12--12-12-12-11-11-11-7-7-7------------------------------|
D|---------------------------------------11--11-11-11-11--11-11-11-7--|
A|--------------------------------------------------------------------|
D|--------------------------------------------------------------------|

e|-------------------------------------------------------------------------|
B|-------------------------------------------------------------------------|
G|-------------------------------------------------------------------------|
D|7-7-7-7--7-7-7-2--2-2-2-2--2-2-2-2--2-2-2-2-2-2-2-2-2-5--5-5-5-5--5-5-5-7|
A|-------------------------------------------------------------------------|
D|-------------------------------------------------------------------------|

e|--------------------------------------------|
B|--------------------------------------------|
G|--------------------------------------------|
D|--7-7-7-7--7-7-7-12--12-12-12-12--12-12-12-9|
A|--------------------------------------------|
D|--------------------------------------------|

e|--------------------------------------------------------|
B|--------------------------------------------------------|
G|--------------------------------------------------------|
D|9-9-9-9-9-9-9-9-9-9-9-9-9-9-9-9-9-9-9-9-9-9-9-9-9-9-9-9-|
A|--------------------------------------------------------|
D|--------------------------------------------------------|

e|-----------------------------------------------------------------------|
B|-----------------------------------------------------------------------|
G|-----------------------------------------------------------------------|
D|11-11-11-11-11-11-11-11-11-11-11-11-11-11-11-11-11-11-11-11-11-11-11-11|
A|-----------------------------------------------------------------------|
D|-----------------------------------------------------------------------|

e|---------------------------------------------------|
B|---------------------------------------------------|
G|------------------7--7-7-7-7--7-7-7-11--11-11-11-11|
D|9--9-9-9-9--9-9-9----------------------------------|
A|---------------------------------------------------|
D|---------------------------------------------------|

e|--------------------------------------------------------------------|
B|--------------------------------------------------------------------|
G|--11-11-11-12--12-12-12-11-11-11-7-7-7------------------------------|
D|---------------------------------------11--11-11-11-11--11-11-11-7--|
A|--------------------------------------------------------------------|
D|--------------------------------------------------------------------|

e|-------------------------------------------------------------------------|
B|-------------------------------------------------------------------------|
G|-------------------------------------------------------------------------|
D|7-7-7-7--7-7-7-2--2-2-2-2--2-2-2-2--2-2-2-2-2-2-2-2-2-5--5-5-5-5--5-5-5-7|
A|-------------------------------------------------------------------------|
D|-------------------------------------------------------------------------|

e|--------------------------------------------|
B|--------------------------------------------|
G|--------------------------------------------|
D|--7-7-7-7--7-7-7-12--12-12-12-12--12-12-12-9|
A|--------------------------------------------|
D|--------------------------------------------|

e|--------------------------------------------------------|
B|--------------------------------------------------------|
G|--------------------------------------------------------|
D|9-9-9-9-9-9-9-9-9-9-9-9-9-9-9-9-9-9-9-9-9-9-9-9-9-9-9-9-|
A|--------------------------------------------------------|
D|--------------------------------------------------------|

e|-----------------------------------------------------------------------|
B|-----------------------------------------------------------------------|
G|-----------------------------------------------------------------------|
D|11-11-11-11-11-11-11-11-11-11-11-11-11-11-11-11-11-11-11-11-11-11-11-11|
A|-----------------------------------------------------------------------|
D|-----------------------------------------------------------------------|

Verse 3:
e|---------------------------------------------|
B|---------------------------------------------|
G|---------------------------------------------|
D|---------------------------------------------|
A|2--2-0-0-0-0-2--2-0-0-0-0-2--2-0-0-0-0-444444|
D|2--2-0-0-0-0-2--2-0-0-0-0-2--2-0-0-0-0-444444|
     ' ' ' ' '    ' ' ' ' '    ' ' ' ' ' 
e|---------------------------------------------|
B|---------------------------------------------|
G|---------------------------------------------|
D|---------------------------------------------|
A|2--2-0-0-0-0-2--2-0-0-0-0-2--2-0-0-0-0-444444|
D|2--2-0-0-0-0-2--2-0-0-0-0-2--2-0-0-0-0-444444|
     ' ' ' ' '    ' ' ' ' '    ' ' ' ' ' 
e|---------------------------------------------|
B|---------------------------------------------|
G|---------------------------------------------|
D|---------------------------------------------|
A|2--2-0-0-0-0-2--2-0-0-0-0-2--2-0-0-0-0-444444|
D|2--2-0-0-0-0-2--2-0-0-0-0-2--2-0-0-0-0-444444|
     ' ' ' ' '    ' ' ' ' '    ' ' ' ' ' 
e|---------------------------------------------|
B|---------------------------------------------|
G|---------------------------------------------|
D|---------------------------------------------|
A|2--2-0-0-0-0-2--2-0-0-0-0-2--2-0-0-0-0-444444|
D|2--2-0-0-0-0-2--2-0-0-0-0-2--2-0-0-0-0-444444|
     ' ' ' ' '    ' ' ' ' '    ' ' ' ' ' 
e|---------------------------------------------|
B|---------------------------------------------|
G|---------------------------------------------|
D|---------------------------------------------|
A|2--2-0-0-0-0-2--2-0-0-0-0-2--2-0-0-0-0-444444|
D|2--2-0-0-0-0-2--2-0-0-0-0-2--2-0-0-0-0-444444|
     ' ' ' ' '    ' ' ' ' '    ' ' ' ' ' 
e|---------------------------------------------|
B|---------------------------------------------|
G|---------------------------------------------|
D|---------------------------------------------|
A|2--2-0-0-0-0-2--2-0-0-0-0-2--2-0-0-0-0-444444|
D|2--2-0-0-0-0-2--2-0-0-0-0-2--2-0-0-0-0-444444|
     ' ' ' ' '    ' ' ' ' '    ' ' ' ' ' 
Bridge:
Trills...                      4x
e|----------------------------|
B|----------------------------|
G|----------------------------|
D|11-9----7-4-9---7-2----5-4--|
A|----------------------------|
D|----------------------------|

Chorus 3:
e|---------------------------------------------------|
B|---------------------------------------------------|
G|------------------7--7-7-7-7--7-7-7-11--11-11-11-11|
D|9--9-9-9-9--9-9-9----------------------------------|
A|---------------------------------------------------|
D|---------------------------------------------------|

e|--------------------------------------------------------------------|
B|--------------------------------------------------------------------|
G|--11-11-11-12--12-12-12-11-11-11-7-7-7------------------------------|
D|---------------------------------------11--11-11-11-11--11-11-11-7--|
A|--------------------------------------------------------------------|
D|--------------------------------------------------------------------|

e|-------------------------------------------------------------------------|
B|-------------------------------------------------------------------------|
G|-------------------------------------------------------------------------|
D|7-7-7-7--7-7-7-2--2-2-2-2--2-2-2-2--2-2-2-2-2-2-2-2-2-5--5-5-5-5--5-5-5-7|
A|-------------------------------------------------------------------------|
D|-------------------------------------------------------------------------|

e|--------------------------------------------|
B|--------------------------------------------|
G|--------------------------------------------|
D|--7-7-7-7--7-7-7-12--12-12-12-12--12-12-12-9|
A|--------------------------------------------|
D|--------------------------------------------|

e|--------------------------------------------------------|
B|--------------------------------------------------------|
G|--------------------------------------------------------|
D|9-9-9-9-9-9-9-9-9-9-9-9-9-9-9-9-9-9-9-9-9-9-9-9-9-9-9-9-|
A|--------------------------------------------------------|
D|--------------------------------------------------------|

e|-----------------------------------------------------------------------|
B|-----------------------------------------------------------------------|
G|-----------------------------------------------------------------------|
D|11-11-11-11-11-11-11-11-11-11-11-11-11-11-11-11-11-11-11-11-11-11-11-11|
A|-----------------------------------------------------------------------|
D|-----------------------------------------------------------------------|

e|---------------------------------------------------|
B|---------------------------------------------------|
G|------------------7--7-7-7-7--7-7-7-11--11-11-11-11|
D|9--9-9-9-9--9-9-9----------------------------------|
A|---------------------------------------------------|
D|---------------------------------------------------|

e|--------------------------------------------------------------------|
B|--------------------------------------------------------------------|
G|--11-11-11-12--12-12-12-11-11-11-7-7-7------------------------------|
D|---------------------------------------11--11-11-11-11--11-11-11-7--|
A|--------------------------------------------------------------------|
D|--------------------------------------------------------------------|

e|-------------------------------------------------------------------------|
B|-------------------------------------------------------------------------|
G|-------------------------------------------------------------------------|
D|7-7-7-7--7-7-7-2--2-2-2-2--2-2-2-2--2-2-2-2-2-2-2-2-2-5--5-5-5-5--5-5-5-7|
A|-------------------------------------------------------------------------|
D|-------------------------------------------------------------------------|

e|--------------------------------------------|
B|--------------------------------------------|
G|--------------------------------------------|
D|--7-7-7-7--7-7-7-12--12-12-12-12--12-12-12-9|
A|--------------------------------------------|
D|--------------------------------------------|

e|--------------------------------------------------------|
B|--------------------------------------------------------|
G|--------------------------------------------------------|
D|9-9-9-9-9-9-9-9-9-9-9-9-9-9-9-9-9-9-9-9-9-9-9-9-9-9-9-9-|
A|--------------------------------------------------------|
D|--------------------------------------------------------|

e|-----------------------------------------------------------------------|
B|-----------------------------------------------------------------------|
G|-----------------------------------------------------------------------|
D|11-11-11-11-11-11-11-11-11-11-11-11-11-11-11-11-11-11-11-11-11-11-11-11|
A|-----------------------------------------------------------------------|
D|-----------------------------------------------------------------------|

Solo:
e|----------------------------------------------------|
B|14-13--11-8-13--11-7--------------------------------|
G|----------------------9h11-9--9-7-4--6-7-4--6----9--|
D|----------------------------------------------------|
A|----------------------------------------------------|
D|----------------------------------------------------|
Добавлено: 02.04.2012
Другие материалы по этой песне:

Страница создана 27.02.2012
http://primanota.ru/amon-amarth/embrace-of-the-endless-ocean-chords.htm
Привет, Гость.
Предлагаем пройти революционный курс по гитаре.
Подарок от PrimaNota.Ru, забирай!