PrimaNota.ru - самый крупный в мире бесплатный архив песенных текстов, аккордов, табулатур и нот


Amon Amarth - Free Will Sacrifice - текст песни, таба, видео

Регистрация Запомнить меня
Войти через:  Facebook Google Twitter Vk Yandex Mail.ru

Amon Amarth - Free Will Sacrifice - текст песни, таба, видео

Печатать
Просмотров: 237
Авторы музыки: Ted Lundström, Johan Söderberg, Olavi Mikkonen, Fredrik Andersson, Johan Hegg
Авторы текста: Ted Lundström, Johan Söderberg, Olavi Mikkonen, Fredrik Andersson, Johan Hegg
                                     Free Will Sacrifice

                                 Amon Amarth

Transcribed by sam b

Tuning: B Standard

Tempo: 171bpm


Intro
B ||---------------------------------------------------------------------|
F#||---------------------------------------------------------------------|
D ||---------------------------------------------------------------------|
A ||---------------------------------------------------------------------|  Gtr 1
E ||--2-------2-----2---2---2----------2-------2-----2---2-----/5---5~~--|
B ||--0-0-0-0-0-0-0-0-0-0-0-0-0-0-0-0--0-0-0-0-0-0-0-0-0-0-0-0-----------|
PM      . . .   . .   .   .   . . . .    . . .   . .   .   . .

B ||---------------------------------------------------------------------|
F#||---------------------------------------------------------------------|
D ||---------------------------------------------------------------------|
A ||---------------------------------------------------------------------|  Gtr 2
E ||-----------------------------------------------------------/5---5~~--|
B ||-------------------------------------------------------0-0-----------|
PM                                                         . .


Main/Verse
B ||---------------------------------------------------------------------|
F#||---------------------------------------------------------------------|
D ||---------------------------------------------------------------------|
A ||----------------------------------------------------------------10---|
E ||--2-------2-----2---2---2--------8--7\-----2-----2---9-----10---8----|
B ||--0-0-0-0-0-0-0-0-0-0-0-0-5-7-8--------0-0-0-0-0-0-0-7-0-0-8--0----0-|
PM      . . .   . .   .   .   . . .  .     . .   . .   .   . .    .    .
                                                                           Gtrs 1&2
B ||---------------------------------------------------------------------|
F#||---------------------------------------------------------------------|
D ||---------------------------------------------------------------------|
A ||-9\------------------------------------------------------------------|
E ||-7\-----2-----2---2---2--------8--7\-----2-----2---2-----/5---5~-----|
B ||----0-0-0-0-0-0-0-0-0-0-5-7-8--------0-0-0-0-0-0-0-0-0-0-------------|
PM      . .   . .   .   .   . . .  .     . .   . .   .   . .


Break/Chorus
B|-----------------------------------------------------------------------------------------------|
F#-----------------------------------------------------------------------------------------------|
D|-----------------------------------------------------------------------------------------------|
A|14-14-14-14-14-14-------17-17-17-16-16-16-14-14-14---------------------------------------------|
E|------------------14-14----------------------------17-17-17-17-17-17-17-17-15-15-15-15-17-17-17|
B|-----------------------------------------------------------------------------------------------|
Gtr 1



B|-----------------------------------------------------------------------------------------------|
F#|----------------------------------------------------------------------------------------------|
D|-----------------------------------------------------------------------------------------------|
A|-------------------------------------------------5--5--5--5--5--5--5--5--5--5--5--5--5--7--7--7|
E|-2--2--2--2--2--2--2--2--2--2--2--2--2--2--2--2--3--3--3--3--3--3--3--3--3--3--3--3--3--5--5--5|
B|-0--0--0--0--0--0--0--0--0--0--0--0--0--0--0--0------------------------------------------------|
Gtr 2


Verse

Chorus


Bridge
B ||-------------------------------------------------------------------|
F#||-------------------------------------------------------------------|
D ||-------------------------------------------------------------------|
A ||-------------------------------------------------------------------|  Gtr 1
E ||-1010101010101010101010101212121213131313131312121212121210101010--|
B ||-------------------------------------------------------------------|

B ||-------------------------------------------------------------------|
F#||-------------------------------------------------------------------|
D ||-------------------------------------------------------------------|
A ||-------------------------------------------------------------------|  Gtr 2
E ||-------------------------------------------------------------------|
B ||-3-3-3-3-3-3-3-3-3-3-3-3-3-3-3-3-3-3-3-3-3-3-3-3-3-3-3-3-3-3-3-3---|


B ||-------------------------------------------------------------------|
F#||-------------------------------------------------------------------|
D ||-------------------------------------------------------------------|
A ||-12121212121212121212121212121212----------------------------------|  Gtr 1
E ||---------------------------------12121212121212121212121212121212--|
B ||-------------------------------------------------------------------|

B ||-------------------------------------------------------------------|
F#||-------------------------------------------------------------------|
D ||-------------------------------------------------------------------|
A ||-------------------------------------------------------------------|  Gtr 2
E ||-5-5-5-5-5-5-5-5-5-5-5-5-5-5-5-5-5-5-5-5-5-5-5-5-5-5-5-5-5-5-5-5---|
B ||-------------------------------------------------------------------|


B ||-------------------------------------------------------------------|
F#||-------------------------------------------------------------------|
D ||-------------------------------------------------------------------|
A ||-10101010101010101010101012121212131313131313121212121212----------|  Gtr 1
E ||---------------------------------------------------------13131313--|
B ||-------------------------------------------------------------------|

B ||-------------------------------------------------------------------|
F#||-------------------------------------------------------------------|
D ||-------------------------------------------------------------------|
A ||-------------------------------------------------------------------|  Gtr 2
E ||-3-3-3-3-3-3-3-3-3-3-3-3-3-3-3-3-3-3-3-3-3-3-3-3-3-3-3-3-3-3-3-3---|
B ||-------------------------------------------------------------------|


B ||-------------------------------------------------------------------|
F#||-------------------------------------------------------------------|
D ||-------------------------------------------------------------------|
A ||-1010101012121212121212121212121210101010--------------------------|  Gtr 1
E ||-----------------------------------------131313131313131312121212--|
B ||-------------------------------------------------------------------|

B ||-------------------------------------------------------------------|
F#||-------------------------------------------------------------------|
D ||-------------------------------------------------------------------|
A ||-------------------------------------------------------------------|  Gtr 2
E ||-------------------------------------------------------------------|
B ||-6-6-6-6-6-6-6-6-6-6-6-6-6-6-6-6-6-6-6-6-6-6-6-6-6-6-6-6-5-5-5-5---|


Break II
B ||-------------------------------------------------------------------|
F#||-------------------------------------------------------------------|
D ||-------------------------------------------------------------------|
A ||-9-----------10---9------------------------------------------------|
E ||-7-----------8----7----------------5---5-------3---2---------------|
B ||-----00000-0----------00000-0-0-0--3---3-0-3-0-1---0-0-0-0-0-0-0---|
PM       ..... .          ..... . . .        . . .       . . . . . .
                                                                    Gtrs 1&2
B ||-------------------------------------------------------------------|
F#||-------------------------------------------------------------------|
D ||-------------------------------------------------------------------|
A ||-9-----------10---9----------------2---------4---------------------|
E ||-7-----------8----7----------------0---0-0-0-2-0-5-2---------------|
B ||-----00000-0----------00000-0-0-0----------------3-0---0-0-0-0-0-0-|

PM       ..... .          ..... . . .      . . .   .       . . . . . .


Verse

Chorus


Chorus(Variation)
B|-------------------------------------------------------------------------------------------------|
F#|------------------------------------------------------------------------------------------------|
D|-12-12-12-12-12-12-14-14-15-15-15-14-14-14-12-12-12----------------------------------------------|
A|----------------------------------------------------15-15-15-15-15-15-15-15-13-13-13-13-15-15-15-|
E|-------------------------------------------------------------------------------------------------|
B|-------------------------------------------------------------------------------------------------|
Gtr 1 x3

B ||------------------------------------------------------------------------------
F#||------------------------------------------------------------------------------
D ||-12-12-12-12-12-12-14-14-15-15-15-14-14-14-12-12-14-14-14-14-14-14-14-14-15-
A ||------------------------------------------------------------------------------
E ||------------------------------------------------------------------------------
B ||------------------------------------------------------------------------------

------------------------|
------------------------|
15-15-15-14-14-15-15-12~|
------------------------|
------------------------|
------------------------|

Gtr 1
(Play this on
4th time)


B ||-----------------------------------------------------------------------------------------------|
F#||-----------------------------------------------------------------------------------------------|
D ||-----------------------------------------------------------------------------------------------|
A ||-------------------------------------------------7--7--7--7--7--7--7--7--7--7--7--7--7--7--7--7|
E ||-5--5--5--5--5--5--5--5--5--5--5--5--5--5--5--5--5--5--5--5--5--5--5--5--5--5--5--5--5--5--5--5|
B ||-3--3--3--3--3--3--3--3--3--3--3--3--3--3--3--3------------------------------------------------|
                                             Gtr 2
B ||-----------------------------------------------------------------------------------------------|
F#||-----------------------------------------------------------------------------------------------|
D ||-----------------------------------------------------------------------------------------------|
A ||-5--5--5--5--5--5--5--5--5--5--5--5--5--5--5--5------------------------------------------------|
E ||-3--3--3--3--3--3--3--3--3--3--3--3--3--3--3--3--8--8--8--8--8--8--8--8--8--8--8--8--8--8--7--7|
B ||-------------------------------------------------6--6--6--6--6--6--6--6--6--6--6--6--6--6--5--5|


Break II


End
B ||---------------------|
F#||---------------------|
D ||---------------------|
A ||--2---------4--------|  Gtr 1&2
E ||--0---0-0-0-2-0-5-2--|
B ||----------------3-0--|
PM        . . .   .
Добавлено: 04.07.2012
Другие материалы по этой песне:

Страница создана 22.02.2012
http://primanota.ru/amon-amarth/free-will-sacrifice-chords.htm
Привет, Гость.
Предлагаем пройти революционный курс по гитаре.
Подарок от PrimaNota.Ru, забирай!