PrimaNota.ru - самый крупный в мире бесплатный архив песенных текстов, аккордов, табулатур и нот


Allan Holdsworth - Fred - таба, видео

Регистрация Запомнить меня
Войти через:  Facebook Google Twitter Vk Yandex Mail.ru

Allan Holdsworth - Fred - таба, видео

Печатать
Просмотров: 163
Авторы музыки: Allan Holdsworth

FRED
by
ALLAN HOLDSWORTH
from the album
BELIEVE IT (Tony Williams Lifetime)
transcribed by
Dogman (http://www.myspace.com/dogbiscuit)
                                                   |-----3-----|     
                                       Q    E   E  Q     Q     Q     
E||-------|-------|-------|-------||-----------11--L----11----------|
B||-------|-------|-------|-------||-----------12--L----12----11----|
G||-------|-------|-------|-------||*----------11--L----11----11----|
D||-------|-------|-------|-------||*-------------------------11----|
A||-------|-------|-------|-------||--------------------------------|
E||-------|-------|-------|-------||--------------------------------|


   ^                                                    ^                 
                                   |-----3-----|                          
   W                   Q    E   E  Q     Q     Q        W                 
--------------------|----------11--L----11----------|--------------------|
--11----------------|----------12--L----12----11----|--11----------------|
--11----------------|----------11--L----11----11----|--11----------------|
--11----------------|-------------------------11----|--11----------------|
--------------------|-------------------------------|--------------------|
--------------------|-------------------------------|--------------------|


          ^                                        
             |----3----|                           
  Q    E  E  Q    Q    Q       H         H         
----------------------------|--2s--------4--------|
----------2--L----2----3----|--3s--------5--------|
----------2--L----L----L----|--2s--------4--------|
----------2--L----L----L----|--2s--------4--------|
----------2--L--------------|---------------------|
----------------------------|---------------------|


                                   ^                 
              |-----3-----|                          
  Q    E   E  Q     Q     Q        W                 
----------11--L----11----------|--------------------|
----------12--L----12----11----|--11----------------|
----------11--L----11----11----|--11----------------|
-------------------------11----|--11----------------|
-------------------------------|--------------------|
-------------------------------|--------------------|


                                   ^                 
              |-----3-----|                          
  Q    E   E  Q     Q     Q        W                 
----------11--L----11----------|--------------------|
----------12--L----12----11----|--11----------------|
----------11--L----11----11----|--11----------------|
-------------------------11----|--11----------------|
-------------------------------|--------------------|
-------------------------------|--------------------|


                               ^                                              
             |----3----|                                      |----3----|     
  Q    E  E  Q    Q    Q       W                   Q    E  E  Q    Q    Q     
----------------------------|--2----------------|----------------------------|
----------2--L----2----3----|--3----------------|----------2--L----2----3----|
----------2--L----L----L----|--2----------------|----------2--L----L----L----|
----------2--L----L----L----|--2----------------|----------2--L----L----L----|
----------2--L----L----L----|-------------------|----------2--L----L----L----|
----------------------------|-------------------|----------------------------|


  ^                   ^                                                   
  W                   H.           E      E      E      H.            E   
--2----------------|--0------------0--<>(12)--|--L-----------------------|
--3----------------|--0-----------------------|--0--<>(12)------------L--|
--2----------------|--6-----------------------|--------------------------|
--2----------------|--6-----------------------|--------------------------|
-------------------|--7-----------------------|--------------------------|
-------------------|--5-----------------------|--------------------------|


  H        Q          E         E            W                  
--0--------L----0g<>(12)------------|--------------------------|
--0--------L--------------0g<>(12)--|--------------------------|
--5--------L------------------------|--0g<>(12)----------------|
--5--------L------------------------|--------------------------|
--5--------L------------------------|--------------------------|
--3--------L------------------------|--------------------------|


  Q.     E  Q     Q       W                     Q.     E  E   E  E  E   
-----------------------|--------------------||-------------------------|
--3------7--L----10----|--L-----------------||--3----------------------|
--6------9--L----13----|--L----------------*||--6------4--4s--7--L--5--|
--4------7--L----11----|--L----------------*||--4------4--4s--7--L--5--|
--2------5--L-----9----|--L-----------------||--2------2--2s--4--L--7--|
-----------------------|--------------------||-------------------------|


  W                   W                   Q.     E  E   E  E  E   
-------------------|-------------------|-------------------------|
-------------------|-------------------|--3----------------------|
--L----------------|--L----------------|--6------4--4s--9--L--7--|
--L----------------|--L----------------|--4------4--4s--9--L--7--|
--L----------------|--L----------------|--2------2--2s--6--L--4--|
-------------------|-------------------|-------------------------|


  W                   W                   Q.     E  E   E  E  E   
-------------------|-------------------|-------------------------|
-------------------|-------------------|--3----------------------|
--L----------------|--L----------------|--6------4--4s--7--L--5--|
--L----------------|--L----------------|--4------4--4s--7--L--5--|
--L----------------|--L----------------|--2------2--2s--4--L--2--|
-------------------|-------------------|-------------------------|


                                                       To Solos; D.S. Al Coda  
  Q.     E  Q.     E  Q    Q       W                   W                       
--------------------------------|-------------------|-------------------------|
---------4--L------2--L----0----|-------------------|-------------------------|
--L------4--L------2--L----1----|-------------------|-------------------------|
--L------4--L------2--L----1----|-------------------|-------------------------|
--L------2--L------2--L---------|-------------------|-------------------------|
--------------------------------|--0----------------|-------------------------|


  Q.     E  E   E  E  E     W                   W                 
-------------------------|-------------------|-------------------|
--2----------------------|-------------------|-------------------|
--6------4--4s--7--L--5--|--L----------------|--L----------------|
--4------4--4s--7--L--5--|--L----------------|--L----------------|
--2------2--2s--4--L--2--|--L----------------|--L----------------|
-------------------------|-------------------|-------------------|


  Q.     E  E   E  E  E     W                    W                  
-------------------------|-------------------|---------------------|
--2----------------------|-------------------|---------------------|
--6------4--4s--9--L--7--|--L----------------|---L-----------------|
--4------4--4s--9--L--7--|--L----------------|---L-----------------|
--2------2--2s--6--L--4--|--L----------------|--(5)----------------|
-------------------------|-------------------|---------------------|


  Q.     E  E   E  E  E     W                   W                 
-------------------------|-------------------|-------------------|
--2----------------------|-------------------|-------------------|
--6------4--4s--7--L--5--|--L----------------|--4----------------|
--4------4--4s--7--L--5--|--L----------------|--4----------------|
--2------2--7s--4--L--2--|--L----------------|--2----------------|
-------------------------|-------------------|-------------------|


  W                  
-------------------||
--2----------------||
--2----------------||
--2----------------||
--2----------------||
-------------------||




Duration Legend
---------------
W - whole
H - half
Q - quarter
E - 8th
S - 16th
T - 32nd
X - 64th
. - note dotted
|-n-|  - n-tuplets


Tablature Legend
----------------
L - tied note
x - dead note
g - grace note
(n) - ghost note
> - accentuded note
NH - natural harmonic
AH - artificial harmonic
TH - tapped harmonic
SH - semi harmonic
PH - pitch harmonic
h - hammer on
p - pull off
b - bend
br - bendRelease
pb - preBend
pbr - preBendRelease
brb - bendReleaseBend
\n/ - tremolo bar dip
\n - tremolo bar dive
-/n - tremolo bar Release up
/n\ - tremolo bar inverted dip
/n - tremolo bar return
-\n - tremolo bar Release down
S - shift slide
s - legato slide
/ -  slide into from below or out of upwards
\ -  slide into from above or out of downwards
~ - vibrato
W - wide vibrato
tr - trill
TP - tremolo picking
T - tapping
S - slap
P - pop
< - fade in
^ - brush up
v - brush down
Добавлено: 26.04.2012
Другие материалы по этой песне:

Страница создана 26.04.2012
http://primanota.ru/allan-holdsworth/fred-chords.htm
Привет, Гость.
Предлагаем пройти революционный курс по гитаре.
Подарок от PrimaNota.Ru, забирай!