PrimaNota.ru - самый крупный в мире бесплатный архив песенных текстов, аккордов, табулатур и нот


Allan Holdsworth - Material Real Coda - таба, видео

Регистрация Запомнить меня
Войти через:  Facebook Google Twitter Vk Yandex Mail.ru

Allan Holdsworth - Material Real Coda - таба, видео

Печатать
Просмотров: 138
Уроки эстрадного вокала в Санкт-Петербурге
Material Real (Coda)
 by Holdsworth/Williams

Notation by Rick Xavier
Generated by Voicings Staff

Durations:
 The no. of characters (digits, dashes & barlines) shows duration
 Whole note: 32
 Half note: 16
 Quarter note: 8
 Eighth note: 4
 Sixteenth note: 2

Directions:
 Section   Section Begin        Repeat   Repeat Begin
 End       Section End          2)       Repeat End (Play twice)
 Loop      Section Loop
 1.        Ending 1 etc.

 Coda    Coda           Co    To Coda           DS    Dal Segno
 Segno   Segno          CC    DC al Coda        SC    DS al Coda
 Fi      Fine           CF    DC al Fine        SF    DS al Fine
 DC      Da Capo

 Caveat: Adjacent directions may be incomplete due to overlapping.


 ================================================================
 Chord cycle at the end of Material Real (from Road Games)
 The rhythmic pattern is: 3 bars of 3/4, 1 bar of 2/4
 The two chord patterns cycle through 12 keys going up by fourths
                                                                 
                                                                 
 C6/11                                           Bbmaj7#5        
E -----------------------|-----------------------|------------10--
B -----------------------|6----------------------|7---------------
G 9----------------------|------------9----------|7---------------
D ------------7----------|-----------------------|7---------------
A -----------------------|-----------------------|----------------
E 8----------------------|-----------------------|6---------------

                                                                 
                                                                 
                         F6/11                                   
 -------|---------------|-----------------------|----------------
 -------|8--------------|-----------------------|11--------------
 -------|---------------|14---------------------|------------14--
 -------|---------------|------------12---------|----------------
 -------|---------------|-----------------------|----------------
 -------|---------------|13---------------------|----------------

                                                                 
                                                                 
         Ebmaj7#5                                Bb6/11          
 -------|------------15---------|---------------|----------------
 -------|12---------------------|13-------------|----------------
 -------|12---------------------|---------------|7---------------
 -------|12---------------------|---------------|------------5---
 -------|-----------------------|---------------|----------------
 -------|11---------------------|---------------|6---------------

                                                                 
                                                                 
                                 Abmaj7#5                        
 -------|-----------------------|------------8----------|--------
 -------|4----------------------|5----------------------|6-------
 -------|------------7----------|5----------------------|--------
 -------|-----------------------|5----------------------|--------
 -------|-----------------------|-----------------------|--------
 -------|-----------------------|4----------------------|--------

                                                                 
                                                                 
         Eb6/11                                          Dbmaj7#5
 -------|-----------------------|-----------------------|--------
 -------|-----------------------|9----------------------|10------
 -------|12---------------------|------------12---------|10------
 -------|------------10---------|-----------------------|10------
 -------|-----------------------|-----------------------|--------
 -------|11---------------------|-----------------------|9-------

                                                                 
                                                                 
                                 Ab6/11                          
 ----13---------|---------------|-----------------------|--------
 ---------------|11-------------|-----------------------|2-------
 ---------------|---------------|5----------------------|--------
 ---------------|---------------|------------3----------|--------
 ---------------|---------------|-----------------------|--------
 ---------------|---------------|4----------------------|--------

                                                                 
                                                                 
                 Gbmaj7#5                                Db6/11  
 ---------------|------------6----------|---------------|--------
 ---------------|3----------------------|4--------------|--------
 ----5----------|3----------------------|---------------|10------
 ---------------|3----------------------|---------------|--------
 ---------------|-----------------------|---------------|--------
 ---------------|2----------------------|---------------|9-------

                                                                 
                                                                 
                                         Bmaj7#5                 
 ---------------|-----------------------|------------11---------|
 ---------------|7----------------------|8----------------------|
 ---------------|------------10---------|8----------------------|
 ----8----------|-----------------------|8----------------------|
 ---------------|-----------------------|-----------------------|
 ---------------|-----------------------|7----------------------|

                                                                 
                                                                 
                 Gb6/11                                          
 ---------------|-----------------------|-----------------------|
 9--------------|-----------------------|12---------------------|
 ---------------|15---------------------|------------15---------|
 ---------------|------------13---------|-----------------------|
 ---------------|-----------------------|-----------------------|
 ---------------|14---------------------|-----------------------|

                                                                 
                                                                 
 Emaj7#5                                 B6/11                   
 ------------16---------|---------------|-----------------------|
 13---------------------|14-------------|-----------------------|
 13---------------------|---------------|8----------------------|
 13---------------------|---------------|------------6----------|
 -----------------------|---------------|-----------------------|
 12---------------------|---------------|7----------------------|

                                                                 
                                                                 
                         Amaj7#5                                 
 -----------------------|------------9----------|---------------|
 5----------------------|6----------------------|7--------------|
 ------------8----------|6----------------------|---------------|
 -----------------------|6----------------------|---------------|
 -----------------------|-----------------------|---------------|
 -----------------------|5----------------------|---------------|

                                                                 
                                                                 
 E6/11                                           Dmaj7#5         
 -----------------------|-----------------------|------------14--
 -----------------------|10---------------------|11--------------
 13---------------------|------------13---------|11--------------
 ------------11---------|-----------------------|11--------------
 -----------------------|-----------------------|----------------
 12---------------------|-----------------------|10--------------

                                                                 
                                                                 
                         A6/11                                   
 -------|---------------|-----------------------|----------------
 -------|12-------------|-----------------------|3---------------
 -------|---------------|6----------------------|------------6---
 -------|---------------|------------4----------|----------------
 -------|---------------|-----------------------|----------------
 -------|---------------|5----------------------|----------------

                                                                 
                                                                 
         Gmaj7#5                                 D6/11           
 -------|------------7----------|---------------|----------------
 -------|4----------------------|5--------------|----------------
 -------|4----------------------|---------------|11--------------
 -------|4----------------------|---------------|------------9---
 -------|-----------------------|---------------|----------------
 -------|3----------------------|---------------|10--------------

                                                                 
                                                                 
                                 Cmaj7#5                         
 -------|-----------------------|------------12---------|--------
 -------|8----------------------|9----------------------|10------
 -------|------------11---------|9----------------------|--------
 -------|-----------------------|9----------------------|--------
 -------|-----------------------|-----------------------|--------
 -------|-----------------------|8----------------------|--------

                                                                 
                                                                 
         G6/11                                           Fmaj7#5 
 -------|-----------------------|-----------------------|--------
 -------|-----------------------|13---------------------|14------
 -------|16---------------------|------------16---------|14------
 -------|------------14---------|-----------------------|14------
 -------|-----------------------|-----------------------|--------
 -------|15---------------------|-----------------------|13------

                                 
                 End             
                                 
 ----17---------|---------------|
 ---------------|15-------------|
 ---------------|---------------|
 ---------------|---------------|
 ---------------|---------------|
 ---------------|---------------|
     
Добавлено: 25.11.2013
Другие материалы по этой песне:
  • Аккорды и текст

Страница создана 25.11.2013
http://primanota.ru/allan-holdsworth/material-real-coda-chords.htm
Привет, Гость.
Предлагаем пройти революционный курс по гитаре.
Подарок от PrimaNota.Ru, забирай!