PrimaNota.ru - самый крупный в мире бесплатный архив песенных текстов, аккордов, табулатур и нот


All Shall Perish - We Hold These Truths - текст песни, таба, видео

Регистрация Запомнить меня
Войти через:  Facebook Google Twitter Vk Yandex Mail.ru

All Shall Perish - We Hold These Truths - текст песни, таба, видео

Печатать
Просмотров: 224
ARTIST: All Shall Perish
TITLE:  We Hold These Truths (Intro Only)
ALBUM:  The Price Of Existence

----------------------------------------------------------------------------

It's a nice sweep, nothing more to say about it! Good luck! Song is played
in Drop B tuning, which is Drop D then everything down three steps:

B, Gb, B, E, Ab, Db

Sorry it's not the whole song but I'm lazy and I only really wanted to learn
the intro :p

----------------------------------------------------------------------------

Db|-17----------------------------------------------|
Ab|----18-------18----------------------------------|
E |-------19-------19-------19----------------------|
B |----------19-------19-------19-------19----------|
Gb|----------------------20-------20-17----20-17----|
B |----------------------------------------------19-|

Db|----------------------------------------------18-|
Ab|----------------------------------18-------18----|
E |----------------------19-------19-------19-------|
B |----------20-------20-------20-------20----------|
Gb|----17-20----17-20-------20----------------------|
B |-20----------------------------------------------|

Db|-17----------------------15----------------------|
Ab|----18-------18-------------17-------17----------|
E |-------19-------19-------------18-15----18-15----|
B |----------19-------19-------------------------17-|
Gb|----------------------20-------------------------|
B |-------------------------------------------------|

Db|-13----------------------12----------------------|
Ab|----15-------15-------------14-------14----------|
E |-------15-14----15-------------14-------14-------|
B |-------------------15-12-------------------14----|
Gb|----------------------------------------------16-|
B |-------------------------------------------------|

The chords underneath are:

Db|----------------------------------------|
Ab|----------------------------------------|
E |----------------------------------------|
B |-0--------8--------0----7----8----11----|
Gb|-0--------8--------0----7----8----12----|
B |-0--------8--------0----7----8----11----|

----------------------------------------------------------------------------
Comments? Questions? Corrections? thisjanuary {AT} gmail.com
----------------------------------------------------------------------------
Добавлено: 18.06.2012
Другие материалы по этой песне:

Страница создана 20.03.2012
http://primanota.ru/all-shall-perish/we-hold-these-truths-chords.htm
Привет, Гость.
Предлагаем пройти революционный курс по гитаре.
Подарок от PrimaNota.Ru, забирай!