PrimaNota.ru - самый крупный в мире бесплатный архив песенных текстов, аккордов, табулатур и нот


All Shall Perish - Our Own Graves - таба, видео

Регистрация Запомнить меня
Войти через:  Facebook Google Twitter Vk Yandex Mail.ru

All Shall Perish - Our Own Graves - таба, видео

Печатать
Просмотров: 124
THIS IS MY FIRST TAB SO DONT HATE MENG
ILL HAVE MORE LATER
COMMENT, FEEDBACK = :D
MOST BRUTAL BAND EVER!!!!!!!!!!!!!!!!!!!!!!!!!!!!!!!!!!!!!!!!!!!!!!!!!!!


C|-------------------------------------------------------------------------------------|
G|-------------------------------------------------------------------------------------|
E|-------------------------------------------------------------------------------------|
B|-----2-----2----0--0---------0---0---------------------------------------------------|
F|---3---3-2---2--0--0---------0---0---------------------------------------------------|
B|----------------0--0---------0---0---------------------------------------------------|
                  x            x
C|----------------------------------------------------|
G|----------------------------------------------------|
E|----------------------------------------------------|
B|-----2-----2----0--0---------0-0--0-0-0-0--0--0--0--|
F|---3---3-2---2--0--0---------0-0--0-0-0-0--0--0--0--|
B|----------------0--0---------0-0--0-0-0-0--0--0--0--|
                  x            x x  x x x x  x  x  x
C|--------------------------------------------------------------------------------------|
G|--------------------------------------------------------------------------------------|
E|--------------------------------------------------------------------------------------|
B|----2---5--2--6---0--0-------0-0------------------------------------------------------|
F|--3---3-----------0--0-------0-0------------------------------------------------------|
B|------------------0--0-------0-0------------------------------------------------------|
    T T T T  T  T   x          x
C|---------------------------------------------------|
G|---------------------------------------------------|
E|---------------------------------------------------|
B|----2-----2------0--0-------0-0--0-0-0-0--0--0--0--|
F|--3---3-2---2----0--0-------0-0--0-0-0-0--0--0--0--|
B|-----------------0--0-------0-0--0-0-0-0--0--0--0--|
    T T T T T T    x  x       x x  x x x x  x  x  x
e|---------------------------------------------------------------------------------------|
B|---------------------------------------------------------------------------------------|
G|---------------------------------------------------------------------------------------|
D|----2---5--2--6---0--0------0--0-------------------------------------------------------|
A|--3---3-----------0--0------0--0-------------------------------------------------------|
E|------------------0--0------0--0-------------------------------------------------------|
    T T T T  T  T   x         x

                 BREAKDOWN #1
e|---------------|------------------------------------------------|
B|---------------|------------------------------------------------|
G|---------------|------------------------------------------------|
D|----2-----2----|-0-0---0-0---0-0-0-0--0-0-0--0-0--0-0--3-2-3-0--|
A|--3---3-2---2--|-0-0---0-0---0-0-0-0--0-0-0--0-0--0-0-----------|
E|---------------|-0-0---0-0---0-0-0-0--0-0-0--0-0--0-0-----------|
    T T T T T T    x x   x x   x x x x  x x x  x x  x x  T T T T
e|-------------------------------------------------|
B|-------------------------------------------------|
G|-------------------------------------------------|
D|-0-0---0-0---0-0-0-0--0-0-0--0-0--0-0---3-2-3-6--|
A|-0-0---0-0---0-0-0-0--0-0-0--0-0--0-0------------|
E|-0-0---0-0---0-0-0-0--0-0-0--0-0--0-0------------|
   x x   x x   x x x x  x x x  x x  x x   T T T T
REPEAT BREAKDOWN #1 TWO TIME

| /  slide up
| \  slide down
| h  hammer-on
| p  pull-off
| T  Tremolo
| +  harmonic
| x  Palm Mute
===============================================================================
Добавлено: 16.05.2012
Другие материалы по этой песне:
  • Аккорды и текст

Страница создана 16.05.2012
http://primanota.ru/all-shall-perish/our-own-graves-chords.htm
Привет, Гость.
Предлагаем пройти революционный курс по гитаре.
Подарок от PrimaNota.Ru, забирай!