PrimaNota.ru - самый крупный в мире бесплатный архив песенных текстов, аккордов, табулатур и нот


All Shall Perish - There Is No Business To Be Done On A Dead Planet - текст песни, таба, бас-таба, видео

Регистрация Запомнить меня
Войти через:  Facebook Google Twitter Vk Yandex Mail.ru

All Shall Perish - There Is No Business To Be Done On A Dead Planet - текст песни, таба, бас-таба, видео

Печатать
Просмотров: 221
No Business on a Dead Deal
All Shall Perish

Tuning: B F# B E G# C#

                          PM PM PM PM PM     PM PM PM PM PM         PM PM PM
      W                   T  T  S  S  S  S S T  T  S  S  S  S S S S T  T  S
C#||--1----------------|-------------------------------------------------------|
G#||--0----------------|-------------------------------------------------------|
E||-------------------|--------------------------------------------------------|
B||-------------------|-----------------9-6----------------9-6-8-5-------------|
F#||--0----------------|-----------8--5---------------8--5---------------------|
B||--0----------------|--0--0--0------------0--0--0----------------0--0--0-----|


  PM PM PM PM PM PM PM PM PM
  S  S  T  T  S  S  S  S  S  S S S S S S S S
---------------------------------------------|
---------------------------------------------|
---------------------------------9-6-8-5-8-5-|
-----------------------9--6--8-5-------------|
--8--5-----------8--5------------------------|
--------0--0--0------------------------------|


  PM PM PM  PMPM      PM PM PM  PMPM           PM PM PM
  T  T  S   S S   S S T  T  S   S S   S S  S S T  T  S
--------------------------------------------------------|
--------------------------------------------------------|
--------------------------------------------------------|
-----------------12-9----------------12-9-11-7----------|
-----------11-8----------------11-8---------------------|
--0--0--0-------------0--0--0------------------0--0--0--|


   PMPM PM PM PM  PMPM  PMPM
   S S  T  T  S   S S   S S   S S  S S  S S  S S
-------------------------------------------------|
-------------------------------------------------|
----------------------------------12-9-11-8-11-8-|
-----------------------12-9--11-8----------------|
--11-8-----------11-8----------------------------|
--------0--0--0----------------------------------|


  PM PM PM  PMPM      PM PM PM  PMPM           PM PM PM
  T  T  S   S S   S S T  T  S   S S   S S  S S T  T  S
--------------------------------------------------------|
--------------------------------------------------------|
--------------------------------------------------------|
-----------------12-9----------------12-9-11-7----------|
-----------11-8----------------11-8---------------------|
--0--0--0-------------0--0--0------------------0--0--0--|


   PMPM PM PM PM  PMPM  PMPM
   S S  T  T  S   S S   S S   S S  S S  S S  S S
-------------------------------------------------|
-------------------------------------------------|
----------------------------------12-9-11-8-11-8-|
-----------------------12-9--11-8----------------|
--11-8-----------11-8----------------------------|
--------0--0--0----------------------------------|


  PM PM PM  PMPM      PM PM PM  PMPM           PM PM PM
  T  T  S   S S   S S T  T  S   S S   S S  S S T  T  S
--------------------------------------------------------|
--------------------------------------------------------|
--------------------------------------------------------|
-----------------12-9----------------12-9-11-7----------|
-----------11-8----------------11-8---------------------|
--0--0--0-------------0--0--0------------------0--0--0--|


   PMPM PM PM PM  PMPM  PMPM
   S S  T  T  S   S S   S S   S S  S S  S S  S S
-------------------------------------------------|
-------------------------------------------------|
----------------------------------12-9-11-8-11-8-|
-----------------------12-9--11-8----------------|
--11-8-----------11-8----------------------------|
--------0--0--0----------------------------------|


        PMPM       PMPM       PMPM             PM
   S S  S S   S S  S S   S S  S S  S S S  S    E  H.           E
--------------------------------------------|---------------------|
--------------------------------------------|---------------------|
--12-8-------11-7-------10-6-------9-5-5p-0-|---------------------|
-------11-8-------11-7-------10-6-----------|---------------------|
--------------------------------------------|--0------------------|
--------------------------------------------|--0------------------|


  W                   W                    S S  S S S  S  S S  S S S S S S S S
-------------------|-------------------|---------------------------------------|
-------------------|-------------------|--10-----------------------------------|
-------------------|-------------------|-----9-10-7-9--------------------------|
-------------------|-------------------|--------------11-12-8-11-7-8-6-7-3-6-2-|
-------------------|-------------------|---------------------------------------|
-------------------|-------------------|---------------------------------------|


  S S S S S S S S S S S S S  S S S    S S S S S S S S S S S S S  S S S
-----------------------------------|-----------------------------------|
-----------------------------------|-----------------------------------|
------------7-6--------------------|------------7-6--------------------|
--------7-8-----7-6----------------|--------7-8-----7-6----------------|
------8-------------7-0-7-8-10-8-7-|------8-------------7-0-7-8-10-8-7-|
--0-7------------------------------|--0-7------------------------------|


  S S S S S S S S S S S S S  S S S     S S  S S S  S  S S  S S S S S S S S
-----------------------------------|---------------------------------------|
-----------------------------------|--10-----------------------------------|
------------7-6--------------------|-----9-10-7-9--------------------------|
--------7-8-----7-6----------------|--------------11-12-8-11-7-8-6-7-3-6-2-|
------8-------------7-0-7-8-10-8-7-|---------------------------------------|
--0-7------------------------------|---------------------------------------|


  S S S S S S S S S S S S S  S S S    S S S S S S S S S S S S S  S S S
-----------------------------------|-----------------------------------|
-----------------------------------|-----------------------------------|
------------7-6--------------------|------------7-6--------------------|
--------7-8-----7-6----------------|--------7-8-----7-6----------------|
------8-------------7-0-7-8-10-8-7-|------8-------------7-0-7-8-10-8-7-|
--0-7------------------------------|--0-7------------------------------|


  S S S S S S S S S S S S S  S S S     S S  S S S  S  S S  S S S S S S S S
-----------------------------------|---------------------------------------|
-----------------------------------|--10-----------------------------------|
------------7-6--------------------|-----9-10-7-9--------------------------|
--------7-8-----7-6----------------|--------------11-12-8-11-7-8-6-7-3-6-2-|
------8-------------7-0-7-8-10-8-7-|---------------------------------------|
--0-7------------------------------|---------------------------------------|


  PM PM PM PM PM PM PM PM PM PM PM PM PM PM
  E  S  S  S  S  E  S  S  S  S  S  S  S  S
--------------------------------------------|
--------------------------------------------|
--------------------------------------------|
--------------------------------------------|
--0--8--5--8--5--0--8--5--8--5--8--5--4--7--|
--0--0--0--0--0--0--0--0--0--0--0--0--0--0--|


  PM PM PM PM PM PM PM PM PM PM PM PM PM PM
  E  S  S  S  S  E  S  S  S  S  S  S  S  S
--------------------------------------------|
--------------------------------------------|
--------------------------------------------|
--------------------------------------5--8--|
--0--8--5--8--5--0--8--5--8--5--8--5--------|
--0--0--0--0--0--0--0--0--0--0--0--0--0--0--|


  PM PM PM PM PM PM PM PM PM PM PM PM PM PM
  E  S  S  S  S  E  S  S  S  S  S  S  S  S
--------------------------------------------|
--------------------------------------------|
--------------------------------------------|
--------------------------------------------|
--0--8--5--8--5--0--8--5--8--5--8--5--4--7--|
--0--0--0--0--0--0--0--0--0--0--0--0--0--0--|


   tr       tr       tr        tr
   Q        Q        Q         Q
---------------------------------------|
---------------------------------------|
--------------------13(10)----12(9)----|
-----------12(9)-----------------------|
--12(8)--------------------------------|
---------------------------------------|


  PM PM PM PM PM PM PM PM PM PM PM PM PM PM
  E  S  S  S  S  E  S  S  S  S  S  S  S  S
--------------------------------------------|
--------------------------------------------|
--------------------------------------------|
--------------------------------------------|
--0--8--5--8--5--0--8--5--8--5--8--5--4--7--|
--0--0--0--0--0--0--0--0--0--0--0--0--0--0--|


  PM PM PM PM PM PM PM PM PM PM PM PM PM PM
  E  S  S  S  S  E  S  S  S  S  S  S  S  S
--------------------------------------------|
--------------------------------------------|
--------------------------------------------|
--------------------------------------5--8--|
--0--8--5--8--5--0--8--5--8--5--8--5--------|
--0--0--0--0--0--0--0--0--0--0--0--0--0--0--|


  PM PM PM PM PM PM PM PM PM PM PM PM PM PM
  E  S  S  S  S  E  S  S  S  S  S  S  S  S
--------------------------------------------|
--------------------------------------------|
--------------------------------------------|
--------------------------------------------|
--0--8--5--8--5--0--8--5--8--5--8--5--4--7--|
--0--0--0--0--0--0--0--0--0--0--0--0--0--0--|


   tr       tr       tr        tr
   Q        Q        Q         Q          W
---------------------------------------|-------------------|
---------------------------------------|-------------------|
--------------------13(10)----12(9)----|-------------------|
-----------12(9)-----------------------|-------------------|
--12(8)--------------------------------|-------------------|
---------------------------------------|-------------------|


  S S S S S S S S S S S S S S S S    S S S S S S S S S S S S S S S S
----------------------------------|----------------------------------|
----------------------------------|----------------------------------|
----------------------------------|----------------------------------|
----------------------------------|----------------------------------|
----------------------------------|----------------------------------|
--0-0-0-0-0-0-0-0-0-0-0-0-0-0-0-0-|--2-2-2-2-2-2-2-2-3-3-3-3-3-3-3-3-|


  S S S S S S S S S S S S S S S S     S S  S S S  S  S S  S S S S S S S S
----------------------------------|---------------------------------------|
----------------------------------|--10-----------------------------------|
----------------------------------|-----9-10-7-9--------------------------|
----------------------------------|--------------11-12-8-11-7-8-6-7-3-6-2-|
--4-4-4-4-4-4-4-4-4-4-4-4-4-4-4-4-|---------------------------------------|
----------------------------------|---------------------------------------|


  S S S S S S S S S S S S S S S S    S S S S S S S S S S S S S S S S
----------------------------------|----------------------------------|
----------------------------------|----------------------------------|
----------------------------------|----------------------------------|
----------------------------------|----------------------------------|
----------------------------------|----------------------------------|
--0-0-0-0-0-0-0-0-0-0-0-0-0-0-0-0-|--2-2-2-2-2-2-2-2-3-3-3-3-3-3-3-3-|


  S S S S S S S S S S S S S S S S     S S  S S S  S  S S  S S S S S S S S
----------------------------------|---------------------------------------|
----------------------------------|--10-----------------------------------|
----------------------------------|-----9-10-7-9--------------------------|
----------------------------------|--------------11-12-8-11-7-8-6-7-3-6-2-|
--4-4-4-4-4-4-4-4-4-4-4-4-4-4-4-4-|---------------------------------------|
----------------------------------|---------------------------------------|


  PM PM PM   PM PM PM   PM PM PM                    PM PM    PM PM
  T  T  S  S T  T  S  S T  T  S  H           Q.     S  S  E  S  S  E
------------------------------------------|---------------------------|
------------------------------------------|---------------------------|
------------------------------------------|---------------------------|
------------------------------------------|---------------------------|
--0--0--0----0--0--0----0--0--0-----------|---------0--0--1--0--0--1--|
--0--0--0----0--0--0----0--0--0-----------|---------0--0--1--0--0--1--|


    PM PM PM   PM PM PM   PM PM PM        PM PM PM
    T  T  S  S T  T  S  S T  T  S  Q.     T  T  S
|--------------------------------------------------|
|--------------------------------------------------|
|*-------------------------------------------------|
|*-------------------------------------------------|
|---0--0--0----0--0--0----0--0--0---------0--0--0--|
|---0--0--0----0--0--0----0--0--0---------0--0--0--|


     PM PM PM    PM PM PM   PM PM PM   PM PM PM
  E  T  T  S  E  T  T  S  S T  T  S  S T  T  S  E
---------------------------------------------------|
---------------------------------------------------|
---------------------------------------------------|
---------------------------------------------------|
-----0--0--0-----0--0--0----0--0--0----0--0--0-----|
-----0--0--0-----0--0--0----0--0--0----0--0--0-----|


  PM PM PM      PM PM PM PM PM PM   PM PM PM   PM PM PM
  T  T  S  Q    T  T  S  T  T  S  S T  T  S  S T  T  S
--------------------------------------------------------|
--------------------------------------------------------|
--------------------------------------------------------|
--------------------------------------------------------|
--0--0--0-------0--0--0--0--0--0----0--0--0----0--0--0--|
--0--0--0-------0--0--0--0--0--0----0--0--0----0--0--0--|


     PM PM PM        W                PM PM PM
  E  T  T  S  Q      H             E  T  T  S  H.
-------------------------------||---------------------------|
-------------------------------||---------------------------|
------------------------------*||---------------------------|
------------------------------*||---------------------------|
-----0--0--0-------------------||-----0--0--0---------------|
-----0--0--0-------<>3---------||-----0--0--0---------------|


    S  S  S S  S  S  S  S S  S  S S  S  S  S  S
|-----------------------------------------------|
|-----------------------------------------------|
|*----------------------------------------------|
|*---------------17--------------------17-------|
|---3-15-17-3-15----17-18-3-15-17-3-15----17-18-|
|-----------------------------------------------|


  S  S  S S  S  S  S  S S  S  S S  S  S  S  S
----------------------------------------------|
----------------------------------------------|
----------------------------------------------|
---------------17--------------------17-------|
--3-15-17-3-15----17-18-3-15-17-3-15----17-18-|
----------------------------------------------|


  S  S  S S  S  S  S  S S  S  S S  S  S  S  S
----------------------------------------------|
----------------------------------------------|
----------------------------------------------|
---------------16--------------------16-------|
--2-14-16-2-14----16-17-2-14-16-2-14----16-17-|
----------------------------------------------|


  S  S  S S  S  S  S  S S  S  S S  S  S  S  S
-----------------------------------------------||
-----------------------------------------------||
----------------------------------------------*||
---------------16--------------------16-------*||
--2-14-16-2-14----16-17-2-14-16-2-14----16-17--||
-----------------------------------------------||


  S  S  S S  S  S  S  S S  S  S S  S  S  S  S
----------------------------------------------|
----------------------------------------------|
----------------------------------------------|
---------------16--------------------16-------|
--2-14-16-2-14----16-17-2-14-16-2-14----16-17-|
----------------------------------------------|


    PM PM      PM PM      PM PM          PM PM PM PM    PM PM    PM PM
    S  S  Q    S  S  Q    S  S  E     E  S  S  S  S  E  S  S  E  S  S  E
|----------------------------------|--------------------------------------|
|----------------------------------|--------------------------------------|
|*---------------------------------|--------------------------------------|
|*---------------------------------|--------------------------------------|
|---0--0-------0--0-------0--0-----|-----0--0--0--0-----0--0-----0--0-----|
|---0--0-------0--0-------0--0-----|-----0--0--0--0-----0--0-----0--0-----|


  PM PM      PM PM      PM PM          PM PM PM PM    PM PM    PM PM
  S  S  Q    S  S  Q    S  S  E     E  S  S  S  S  E  S  S  E  S  S  E
---------------------------------|---------------------------------------||
---------------------------------|---------------------------------------||
---------------------------------|--------------------------------------*||
---------------------------------|--------------------------------------*||
--0--0-------0--0-------0--0-----|-----0--0--0--0-----0--0-----0--0------||
--0--0-------0--0-------0--0-----|-----0--0--0--0-----0--0-----0--0------||


     PM PM PM PM    PM PM    PM PM       PM PM    PM PM    PM PM PM PM
  E  S  S  S  S  E  S  S  E  S  S  E     S  S  E  S  S  E  S  S  S  S  Q
--------------------------------------|-------------------------------------|
--------------------------------------|-------------------------------------|
--------------------------------------|-------------------------------------|
--------------------------------------|-------------------------------------|
-----0--0--0--0-----0--0-----0--0-----|--0--1-----0--1-----0--1--0--0-------|
-----0--0--0--0-----0--0-----0--0-----|--0--1-----0--1-----0--1--0--0-------|


    PM PM PM PM PM PM PM PM PM PM PM PM PM PM
    E  S  S  S  S  E  S  S  S  S  S  S  S  S
|---------------------------------------------|
|---------------------------------------------|
|*--------------------------------------------|
|*--------------------------------------------|
|---0--8--5--8--5--0--8--5--8--5--8--5--4--7--|
|---0--------------0--------------------------|


  PM PM PM PM PM PM PM PM PM PM PM PM
  E  S  S  S  S  E  S  S  S  S  S  S  S S
------------------------------------------|
------------------------------------------|
------------------------------------------|
--------------------------------------5-8-|
--0--8--5--8--5--0--8--5--8--5--8--5------|
--0--------------0------------------------|


  PM PM PM PM PM PM PM PM PM PM PM PM PM PM
  E  S  S  S  S  E  S  S  S  S  S  S  S  S
--------------------------------------------|
--------------------------------------------|
--------------------------------------------|
--------------------------------------------|
--0--8--5--8--5--0--8--5--8--5--8--5--4--7--|
--0--------------0--------------------------|


  tr       tr       tr      tr
  Q        Q        Q       Q             W
-------------------------------------||--------------------|
-------------------------------------||--------------------|
-------------------10(7)----9(6)----*||*-------------------|
------------------------------------*||*-------------------|
--8(5)----11(8)----------------------||--------------------|
-------------------------------------||--------------------|


  PM PM PM PM PM PM PM PM PM PM PM PM PM PM
  E  S  S  S  S  E  S  S  S  S  S  S  S  S
--------------------------------------------|
--------------------------------------------|
--------------------------------------------|
--------------------------------------5--8--|
--0--8--5--8--5--0--8--5--8--5--8--5--------|
--0--0--0--0--0--0--0--0--0--0--0--0--0--0--|


  PM PM PM PM PM PM PM PM PM PM PM PM PM PM
  E  S  S  S  S  E  S  S  S  S  S  S  S  S
--------------------------------------------|
--------------------------------------------|
--------------------------------------------|
--------------------------------------------|
--0--8--5--8--5--0--8--5--8--5--8--5--4--7--|
--0--0--0--0--0--0--0--0--0--0--0--0--0--0--|


   tr       tr       tr        tr           PM PM PM PM PM PM PM PM
   Q        Q        Q         Q            E  S  S  S  S  S  S  E  Q.
----------------------------------------||---------------------------------||
----------------------------------------||---------------------------------||
--------------------13(10)----12(9)----*||---------------------------------||
-----------12(9)-----------------------*||---------------------------------||
--12(8)---------------------------------||--0--8--5--8--5--4--7--0---------||
----------------------------------------||--0--0--0--0--0--0--0--0---------||


Duration Legend
---------------
W - whole
H - half
Q - quarter
E - 8th
S - 16th
T - 32nd
X - 64th
. - note dotted
|-n-|  - n-tuplets


Tablature Legend
----------------
L - tied note
x - dead note
g - grace note
(n) - ghost note
> - accentuded note
NH - natural harmonic
AH - artificial harmonic
TH - tapped harmonic
SH - semi harmonic
PH - pitch harmonic
h - hammer on
p - pull off
b - bend
br - bendRelease
pb - preBend
pbr - preBendRelease
brb - bendReleaseBend
\n/ - tremolo bar dip
\n - tremolo bar dive
-/n - tremolo bar Release up
/n\ - tremolo bar inverted dip
/n - tremolo bar return
-\n - tremolo bar Release down
S - shift slide
s - legato slide
/ -  slide into from below or out of upwards
\ -  slide into from above or out of downwards
~ - vibrato
W - wide vibrato
tr - trill
TP - tremolo picking
T - tapping
S - slap
P - pop
< - fade in
^ - brush up
v - brush down
Добавлено: 14.03.2012
Другие материалы по этой песне:

Страница создана 22.02.2012
http://primanota.ru/all-shall-perish/there-is-no-business-to-be-done-on-a-dead-planet-chords.htm
Привет, Гость.
Предлагаем пройти революционный курс по гитаре.
Подарок от PrimaNota.Ru, забирай!