PrimaNota.ru - самый крупный в мире бесплатный архив песенных текстов, аккордов, табулатур и нот


Alex G - People - аккорды и текст, таба, видео

Регистрация Запомнить меня
Войти через:  Facebook Google Twitter Vk Yandex Mail.ru

Alex G - People - аккорды и текст, таба, видео

Печатать
Просмотров: 110
People
Alex G
-------------------------------------------------------------------------------
                                People - Alex G
-------------------------------------------------------------------------------

Tuning: Standard

the D7M   is played with the pinky: 00224 (low e to high e)

E            F#m        E
I don't love anyone but myself 
    F#m
And Marty 
                  D7M  
Cause he holds my money 

E          F#m         E
I wanna be anything on TV 
           F#m
I wanna be famous 
                  D7M  
do you think they want me 

B          F#       A         E
I'll clean up while you're at work 
B        F#        A      E
Matching socks and ironed shirts 
B      F#     A       E
Sarah show me how you want it

e|---------------------------------------------------------------------------|
B|---------------------------------------------------------------------------|
G|--------------------0---0---0---0------------------------------------------|
D|----4---4---4---4-2---2---2---2-----------0--------------------------------|
A|--2---2---2---2---------------------4---4-----4----------------------------|
E|----------------------------------2---2-----2------------------------------|

E         F#m              E
I took my favorite pill on Monday 
              F#m
It made me go backwards 
                  D7M  
Do you wanna feel good 

E        F#m               E
I made a special drink for myself 
              F#m
And I'm gonna drink it 
       D7M     E
All by myself
Добавлено: 28.06.2015
Другие материалы по этой песне:
  • Аккорды и текст

Страница создана 03.08.2014
http://primanota.ru/alex-g/people-chords.htm
Привет, Гость.
Предлагаем пройти революционный курс по гитаре.
Подарок от PrimaNota.Ru, забирай!