PrimaNota.ru - самый крупный в мире бесплатный архив песенных текстов, аккордов, табулатур и нот


Alex G - Gnaw - таба, видео

Регистрация Запомнить меня
Войти через:  Facebook Google Twitter Vk Yandex Mail.ru

Alex G - Gnaw - таба, видео

Печатать
Просмотров: 159
Уроки эстрадного вокала в Санкт-Петербурге
Standard Tuning.
      h - hammer on
      p - pull off
      b - bend string up
      r - release bend
      / - slide up
      \ - slide down
      v - vibrato (sometimes written as ~)
      t - tap (with strumming hand)
      x - mute string

Intro/Verse

E|----x------x------x-------x-/-x-----------------|
B|----12-----12-----12------x-/-x-----------------|
G|----12-----x------x-------x-/-x-----------------|
D|----10-----12-----12------7-/-9-----------------|
A|----0------10-----10------5-/-7-----------------|
E|----x------0------8-------3-/-5-----------------|

End on this chord before beginning the verse

E|---x---|
B|---x---|
G|---x---|
D|---5---|
A|---3---|
E|---1---|


'Dry your eyes'


E|------12--10--7-----7-5h7-5-3p0-------7-5h7-5-3p0------7-5h7/10-7--------|
B|-------------------------------------------------------------------------|
G|---0---------------------------------------------------------------------|
D|-------------------------------------------------------------------------|
A|----------------7-7------------------------------------------------------|
E|---------------------------------7-7---------------8-8-------------------|

     
E|---3---0---0---0------|
B|---3---0---0---1------|
G|---0---0---2---0------|
D|---0---2---1---2------|
A|---2---2---2---3------|
E|---3---0---0---3------|


Tabbed by Stan Evans. 
Добавлено: 13.04.2016
Другие материалы по этой песне:
  • Аккорды и текст

Страница создана 13.04.2016
http://primanota.ru/alex-g/gnaw-chords.htm
Привет, Гость.
Предлагаем пройти революционный курс по гитаре.
Подарок от PrimaNota.Ru, забирай!