PrimaNota.ru - самый крупный в мире бесплатный архив песенных текстов, аккордов, табулатур и нот


Alesana - Heavy Hangs The Albatross - таба, бас-таба, видео

Регистрация Запомнить меня
Войти через:  Facebook Google Twitter Vk Yandex Mail.ru

Alesana - Heavy Hangs The Albatross - таба, бас-таба, видео

Печатать
Просмотров: 123
Intro x4

Gtr I
|------------------------------------------------------------------|
|------------------------7-7-7-7-----------------------------------|
|--------6--6-------6--6---------------6--6-------6--6-------6--6--|
|--4-4-4------4-4-4--------------4-4-4------4-4-4------4-4-4-------|
|------------------------------------------------------------------|
|------------------------------------------------------------------|

Pre-Verse

|Gtr I
||-------------------------------|
||-------------------------------|
||-------------------------------|
||--9------5------7-------9------|
||--9-x32--5-x32--7-x32---9-x32--|
||--9------5------7-------9------|
|
|Gtr II
||----------------------------------------|
||---------8------10------12------11------|
||--7------x-x32--x--x32--x--x16--x--x16--|
||--x-x32--5------7-------9-------8-------|
||--5-------------------------------------|
||----------------------------------------|

Verse x4

Gtr I
|------------------------------------------------------------------|
|------------------------7-7-7-7-----------------------------------|
|--------6--6-------6--6---------------6--6-------6--6-------6--6--|
|--4-4-4------4-4-4--------------4-4-4------4-4-4------4-4-4-------|
|------------------------------------------------------------------|
|------------------------------------------------------------------|

Pre-Chorus
|Gtr I
||-----------------------------------------|
||-----------------------------------------|
||--7----9----11----9--6----7----9----7----|
||-----------------------------------------|
||-----------------------------------------|
||-----------------------------------------|
|
|Gtr II
||-------------------------------------------------------------------|
||-------------------------------------------------------------------|
||-------------------------------------------------------------------|
||--5-5-5-5-5-5-5-5-5-5-5-5-5-5-5-5-7-7-7-7-7-7-7-7-7-7-7-7-7-7-7-7--|
||--5-5-5-5-5-5-5-5-5-5-5-5-5-5-5-5-7-7-7-7-7-7-7-7-7-7-7-7-7-7-7-7--|
||--5-5-5-5-5-5-5-5-5-5-5-5-5-5-5-5-7-7-7-7-7-7-7-7-7-7-7-7-7-7-7-7--|

|Gtr I
||--------------------------------------------------------------------|
||--7------10-7----7------10-7-----7------10-7----7------10-7---------|
||-----7-9------9-----7-9------9-7----7-9------9-----7-9------9-7-9---|
||--------------------------------------------------------------------|
||--------------------------------------------------------------------|
||--------------------------------------------------------------------|
|
|Gtr II
||-----------------------------------------------------------------|
||-----------------------------------------------------------------|
||-----------------------------------------------------------------|
||--9--9-9-9-9-9x--9--9-9-9-9-9x---9--9-9-9-9-9x---4--4-4-4-4-4-4--|
||--9--9-9-9-9-9x--9--9-9-9-9-9x---9--9-9-9-9-9x---4--4-4-4-4-4-4--|
||--9--9-9-9-9-9x--9--9-9-9-9-9x---9--9-9-9-9-9x---4--4-4-4-4-4-4--|

Chorus
|Gtr I
||--------------------------------------------------------------|
||--------------------------------------------------------------|
||--7------7/11--9----11--6----11--4----6--7----11--9----7--6---|
||--------------------------------------------------------------|
||--------------------------------------------------------------|
||--------------------------------------------------------------|
|
|Gtr II
||-------------------------------------------------|
||-------------------------------------------------|
||-------------------------------------------------|
||--9-9-9~--------4~---------5~---------7~-----8~--|
||--9-9-9~--------4~---------5~---------7~-----8~--|
||--9-9-9~--------4~---------5~---------7~-----8~--|
    . .  

|Gtr I
||--------------------------------------------------------------|
||--------------------------------------------------------------|
||--7------7/11--9----11--6----11--4----6--7----11--9----7--6---|
||--------------------------------------------------------------|
||--------------------------------------------------------------|
||--------------------------------------------------------------|
|
|Gtr II
||---------------------------------------------|
||---------------------------------------------|
||---------------------------------------------|
||--9~--------4~---------5~---------7~-----8~--|
||--9~--------4~---------5~---------7~-----8~--|
||--9~--------4~---------5~---------7~-----8~--|

|Gtr I
||---------------------------------------------|
||---------------------------------------------|
||--4---------2----6----7---------------6------|
||---------------------------------------------|
||---------------------------------------------|
||---------------------------------------------|
|
|Gtr II
||-------------------------------------------------------|
||-------------------------------------------------------|
||-------------------------------------------------------|
||--5~--------7~--------4-4-4-4-4-4-4-4-4-4-4-4--4x--4x--|
||--5~--------7~--------4-4-4-4-4-4-4-4-4-4-4-4--4x--4x--|
||--5~--------7~--------4-4-4-4-4-4-4-4-4-4-4-4--4x--4x--|

|Gtr II
||------------------------------------------------------------------------|
||------------------------------------------------------------------------|
||--0-9-11-0-7-0-9-11-7-0-7-0-6-0-6-0--0-9-11-0-7-0-9-11-7-0-7-0-6-0-6-0--|
||------------------------------------------------------------------------|
||------------------------------------------------------------------------|
||------------------------------------------------------------------------|
|
|Gtr I
||-----------------------------------------------------------------------|
||-----------------------------------------------------------------------|
||-----------------------------------------------------------------------|
||--9-9-9-9-9-9-9-9-9-9-9-9-9-9-9-9----5-5-5-5-5-5-5-5-5-5-5-5-5-5-5-5---|
||--9-9-9-9-9-9-9-9-9-9-9-9-9-9-9-9----5-5-5-5-5-5-5-5-5-5-5-5-5-5-5-5---|
||--9-9-9-9-9-9-9-9-9-9-9-9-9-9-9-9----5-5-5-5-5-5-5-5-5-5-5-5-5-5-5-5---|

|Gtr II
||------------------------------------------------------------------------|
||------------------------------------------------------------------------|
||--0-9-11-0-7-0-9-11-7-0-7-0-6-0-6-0--0-9-11-0-7-0-9-11-7-0-7-0-6-0-6-0--|
||------------------------------------------------------------------------|
||------------------------------------------------------------------------|
||------------------------------------------------------------------------|
|
|Gtr I
||-----------------------------------------------------------------------|
||-----------------------------------------------------------------------|
||-----------------------------------------------------------------------|
||--7-7-7-7-7-7-7-7-7-7-7-7-7-7-7-7----4-4-4-4-4-4-4-4--4x--4x--4x--4x---|
||--7-7-7-7-7-7-7-7-7-7-7-7-7-7-7-7----4-4-4-4-4-4-4-4--4x--4x--4x--4x---|
||--7-7-7-7-7-7-7-7-7-7-7-7-7-7-7-7----4-4-4-4-4-4-4-4--4x--4x--4x--4x---|

|Gtr III
||--------------------------------------------------------------------------------------|
||--------------------------------------------------------------------------------------|
||--0-14-16-0-12-0-14-16-12-0-12-0-11-0-11-0--0-14-16-0-12-0-14-16-12-0-12-0-11-0-11-0--|
||--------------------------------------------------------------------------------------|
||--------------------------------------------------------------------------------------|
||--------------------------------------------------------------------------------------|
|
|Gtr II
||------------------------------------------------------------------------|
||------------------------------------------------------------------------|
||--0-9-11-0-7-0-9-11-7-0-7-0-6-0-6-0--0-9-11-0-7-0-9-11-7-0-7-0-6-0-6-0--|
||------------------------------------------------------------------------|
||------------------------------------------------------------------------|
||------------------------------------------------------------------------|
|
|Gtr I
||------------------------------------------------------------------------|
||------------------------------------------------------------------------|
||------------------------------------------------------------------------|
||--9x--9x--9x--9x--9x--9x--9x--9x-----5x--5x--5x--5x--5x--5x--5x--5x-----|
||--9x--9x--9x--9x--9x--9x--9x--9x-----5x--5x--5x--5x--5x--5x--5x--5x-----|
||--9x--9x--9x--9x--9x--9x--9x--9x-----5x--5x--5x--5x--5x--5x--5x--5x-----|

|Gtr III
||--------------------------------------------------------------------------------------|
||--------------------------------------------------------------------------------------|
||--0-14-16-0-12-0-14-16-12-0-12-0-11-0-11-0--0-14-16-0-12-0-14-16-12-0-12-0-11-0-11-0--|
||--------------------------------------------------------------------------------------|
||--------------------------------------------------------------------------------------|
||--------------------------------------------------------------------------------------|
|
||Gtr II
||------------------------------------------------------------------------|
||------------------------------------------------------------------------|
||--0-9-11-0-7-0-9-11-7-0-7-0-6-0-6-0--0-9-11-0-7-0-9-11-7-0-7-0-6-0-6-0--|
||------------------------------------------------------------------------|
||------------------------------------------------------------------------|
||------------------------------------------------------------------------|
|
|Gtr I
||------------------------------------------------------------------------|
||------------------------------------------------------------------------|
||------------------------------------------------------------------------|
||--7x--7x--7x--7x--7x--7x--7x--7x-----4x--4x--4x--4x--4x--4x--4x--4x-----|
||--7x--7x--7x--7x--7x--7x--7x--7x-----4x--4x--4x--4x--4x--4x--4x--4x-----|
||--7x--7x--7x--7x--7x--7x--7x--7x-----4x--4x--4x--4x--4x--4x--4x--4x-----|

Pre-Chorus
|Gtr I
||-----------------------------------------|
||-----------------------------------------|
||--7----9----11----9--6----7----9----7----|
||-----------------------------------------|
||-----------------------------------------|
||-----------------------------------------|
|
|Gtr II
||-------------------------------------------------------------------|
||-------------------------------------------------------------------|
||-------------------------------------------------------------------|
||--5-5-5-5-5-5-5-5-5-5-5-5-5-5-5-5-7-7-7-7-7-7-7-7-7-7-7-7-7-7-7-7--|
||--5-5-5-5-5-5-5-5-5-5-5-5-5-5-5-5-7-7-7-7-7-7-7-7-7-7-7-7-7-7-7-7--|
||--5-5-5-5-5-5-5-5-5-5-5-5-5-5-5-5-7-7-7-7-7-7-7-7-7-7-7-7-7-7-7-7--|

|Gtr I
||--------------------------------------------------------------------|
||--7------10-7----7------10-7-----7------10-7----7------10-7---------|
||-----7-9------9-----7-9------9-7----7-9------9-----7-9------9-7-9---|
||--------------------------------------------------------------------|
||--------------------------------------------------------------------|
||--------------------------------------------------------------------|
|
|Gtr II
||-----------------------------------------------------------------|
||-----------------------------------------------------------------|
||-----------------------------------------------------------------|
||--9--9-9-9-9-9x--9--9-9-9-9-9x---9--9-9-9-9-9x---4--4-4-4-4-4-4--|
||--9--9-9-9-9-9x--9--9-9-9-9-9x---9--9-9-9-9-9x---4--4-4-4-4-4-4--|
||--9--9-9-9-9-9x--9--9-9-9-9-9x---9--9-9-9-9-9x---4--4-4-4-4-4-4--|

Chorus
|Gtr I
||--------------------------------------------------------------|
||--------------------------------------------------------------|
||--7------7/11--9----11--6----11--4----6--7----11--9----7--6---|
||--------------------------------------------------------------|
||--------------------------------------------------------------|
||--------------------------------------------------------------|
|
|Gtr II
||-------------------------------------------------|
||-------------------------------------------------|
||-------------------------------------------------|
||--9-9-9~--------4~---------5~---------7~-----8~--|
||--9-9-9~--------4~---------5~---------7~-----8~--|
||--9-9-9~--------4~---------5~---------7~-----8~--|
    . .  

|Gtr I
||--------------------------------------------------------------|
||--------------------------------------------------------------|
||--7------7/11--9----11--6----11--4----6--7----11--9----7--6---|
||--------------------------------------------------------------|
||--------------------------------------------------------------|
||--------------------------------------------------------------|
|
|Gtr II
||---------------------------------------------|
||---------------------------------------------|
||---------------------------------------------|
||--9~--------4~---------5~---------7~-----8~--|
||--9~--------4~---------5~---------7~-----8~--|
||--9~--------4~---------5~---------7~-----8~--|

|Gtr I
||---------------------------------------------|
||---------------------------------------------|
||--4---------2----6----7---------------6------|
||---------------------------------------------|
||---------------------------------------------|
||---------------------------------------------|
|
|Gtr II
||-------------------------------------------------------|
||-------------------------------------------------------|
||-------------------------------------------------------|
||--5~--------7~--------4-4-4-4-4-4-4-4-4-4-4-4--4x--4x--|
||--5~--------7~--------4-4-4-4-4-4-4-4-4-4-4-4--4x--4x--|
||--5~--------7~--------4-4-4-4-4-4-4-4-4-4-4-4--4x--4x--|

Bridge
Gtr I(Clean)
|--------------------------------------------------------------------|
|--------------------------------------------------------------------|
|--------------------------------------------------------------------|
|--9--9-9-9-9-9--9-9-9-9-9-9--11--11-11-11-11-12--12-12-12-12-15-15--|
|--9--9-9-9-9-9--9-9-9-9-9-9--11--11-11-11-11-12--12-12-12-12-15-15--|
|--9--9-9-9-9-9--9-9-9-9-9-9--11--11-11-11-11-12--12-12-12-12-15-15--|

|--------------------------------------------------------------------|
|--------------------------------------------------------------------|
|--------------------------------------------------------------------|
|--12--12-12-12-12-11--11-11-11-11-11-11--9--9-9-9-9-9--9-9-9-9-9-9--|
|--12--12-12-12-12-11--11-11-11-11-11-11--9--9-9-9-9-9--9-9-9-9-9-9--|
|--12--12-12-12-12-11--11-11-11-11-11-11--9--9-9-9-9-9--9-9-9-9-9-9--|

|Gtr I(Clean)
||--------------------------------------------------------------------|
||--------------------------------------------------------------------|
||--------------------------------------------------------------------|
||--9--9-9-9-9-9--9-9-9-9-9-9--11--11-11-11-11-12--12-12-12-12-15-15--|
||--9--9-9-9-9-9--9-9-9-9-9-9--11--11-11-11-11-12--12-12-12-12-15-15--|
||--9--9-9-9-9-9--9-9-9-9-9-9--11--11-11-11-11-12--12-12-12-12-15-15--|
| 
|Gtr II(Distorted) Tremlo Picking
||--------------------------------------------------------------------|
||--12-12-12-12-12-12-12-12-12-12------14-14-14-14-14-14-14-14-14-14--|
||--------------------------------------------------------------------|
||--------------------------------------------------------------------|
||--------------------------------------------------------------------|
||--------------------------------------------------------------------|

|Gtr I
||--------------------------------------------------------------------|
||--------------------------------------------------------------------|
||--------------------------------------------------------------------|
||--12--12-12-12-12-11--11-11-11-11-11-11--9--9-9-9-9-9--9-9-9-9-9-9--|
||--12--12-12-12-12-11--11-11-11-11-11-11--9--9-9-9-9-9--9-9-9-9-9-9--|
||--12--12-12-12-12-11--11-11-11-11-11-11--9--9-9-9-9-9--9-9-9-9-9-9--|
|
|Gtr II
||--------------------------------------------------------------------|
||--15-15-15-15-15-15-15-15-15-15------17-17-17-17-17-17-17-17-17-17--|
||--------------------------------------------------------------------|
||--------------------------------------------------------------------|
||--------------------------------------------------------------------|
||--------------------------------------------------------------------|

|Gtr I
||----------|
||----------|
||----------|
||--9~~~----|
||--9~~~----|
||--9~~~----|
|
|Gtr II
||----------|
||--17b~~~--|
||----------|
||----------|
||----------|
||----------|

Chorus
|Gtr I
||--------------------------------------------------------------|
||--------------------------------------------------------------|
||--7------7/11--9----11--6----11--4----6--7----11--9----7--6---|
||--------------------------------------------------------------|
||--------------------------------------------------------------|
||--------------------------------------------------------------|
|
|Gtr II
||-------------------------------------------------|
||-------------------------------------------------|
||-------------------------------------------------|
||--9-9-9~--------4~---------5~---------7~-----8~--|
||--9-9-9~--------4~---------5~---------7~-----8~--|
||--9-9-9~--------4~---------5~---------7~-----8~--|
    . .  

|Gtr I
||--------------------------------------------------------------|
||--------------------------------------------------------------|
||--7------7/11--9----11--6----11--4----6--7----11--9----7--6---|
||--------------------------------------------------------------|
||--------------------------------------------------------------|
||--------------------------------------------------------------|
|
|Gtr II
||---------------------------------------------|
||---------------------------------------------|
||---------------------------------------------|
||--9~--------4~---------5~---------7~-----8~--|
||--9~--------4~---------5~---------7~-----8~--|
||--9~--------4~---------5~---------7~-----8~--|

|Gtr I
||---------------------------------------|
||---------------------------------------|
||--4---------2----6----7--------6~~~----|
||---------------------------------------|
||---------------------------------------|
||---------------------------------------|
|
|Gtr II
||--------------------------------------|
||--------------------------------------|
||--------------------------------------|
||--5~--------7~-----------------4~~~---|
||--5~--------7~-----------------4~~~---|
||--5~--------7~-----------------4~~~---|

|Gtr I
||----------|
||----------|
||--4~~~----|
||----------|
||----------|
||----------|
|
|Gtr II
||--2~~~----|
||--3~~~----|
||--4~~~----|
||--4~~~----|
||--2~~~----|
||----------|
Добавлено: 05.10.2013
Другие материалы по этой песне:
  • Аккорды и текст

Страница создана 05.06.2012
http://primanota.ru/alesana/heavy-hangs-the-albatross-chords.htm
Привет, Гость.
Предлагаем пройти революционный курс по гитаре.
Подарок от PrimaNota.Ru, забирай!