PrimaNota.ru - самый крупный в мире бесплатный архив песенных текстов, аккордов, табулатур и нот


Alesana - Labyrinth - таба, видео

Регистрация Запомнить меня
Войти через:  Facebook Google Twitter Vk Yandex Mail.ru

Alesana - Labyrinth - таба, видео

Печатать
Просмотров: 165
Please rate and/or leave your feedback.

Song: Labyrinth
Band: Alesana
Album: A Place Where The Sun Is Silent
Tabbed by: Mr. Picky
Tuning: Drop D

Intro:
e||--------------------------------------------------||
B||--------------------------------------------------||
G||----6~---7~---7-6--7-6----6~---7~---7-6-----------||
D||----4~---7~---5----7------4~---7~---5----77777----||
A||----2~---5~---5----7------2~---5~---5----99999----||
D||--------------5----7----------------5----77777----||

Verse:
e||--------------------------------------------||
B||--------------------------------------------||     _
G||--------------------------------------------|| \/  _|
D||----99999999-77777777-55555555-44--44--4----|| /\ |_
A||----99999999-77777777-55555555-44--44--4----||
D||----99999999-77777777-55555555-44--44--4----||

Prechorus:
e||---------------------------||
B||---------------------------||     _
G||--------------7777---------|| \/  _|
D||----99xx-55xx-7777-7777----|| /\ |_
A||----99xx-55xx-5555-7777----||
D||----99xx-55xx------7777----||

Chorus:
e||--------------------------------------------------||
B||--------------------------------------------------||     _
G||-------------------7777---------------------------|| \/  _|
D||----5555-7777-9999-7777--5555-7777-2-02-02-222----|| /\ |_
A||----5555-7777-9999-5555--5555-7777-2-02-02-222----||
D||----5555-7777-9999-------5555-7777-2-02-02-222----||

e||------------------------------------||
B||------------------------------------||     _
G||-----------666666--------6666s77----|| \/  _|
D||----555-57-xxxxxx-999-97-xxxxxxx----|| /\ |_
A||----555-57-444444-999-97-4444s55----||
D||----555-57--------999-97------------||

Verse:
e||--------------------------------------------||
B||--------------------------------------------||
G||--------------------------------------------||
D||----99999999-77777777-55555555-44--44--4----||
A||----99999999-77777777-55555555-44--44--4----||
D||----99999999-77777777-55555555-44--44--4----||

Prechorus:
e||---------------------------||
B||---------------------------||     _
G||--------------7777---------|| \/  _|
D||----99xx-55xx-7777-7777----|| /\ |_
A||----99xx-55xx-5555-7777----||
D||----99xx-55xx------7777----||

Chorus:
e||--------------------------------------------------||
B||--------------------------------------------------||
G||-------------------7777---------------------------|| 
D||----5555-7777-9999-7777--5555-7777-2-02-02-222----||
A||----5555-7777-9999-5555--5555-7777-2-02-02-222----||
D||----5555-7777-9999-------5555-7777-2-02-02-222----||

e||-----------------------------------------------||
B||-----------------------------------------------||
G||-------------------7777------------22222222----||
D||----5555-7777-9999-7777--5555-7777-22222222----||
A||----5555-7777-9999-5555--5555-7777-22222222----||
D||----5555-7777-9999-------5555-7777-22222222----||

e||-------------------------------------------||
B||-------------------------------22222222----||
G||----33333333-44444444-55555555-xxxxxxxx----||
D||----22222222-22222222-22222222-22222222----||
A||----22222222-22222222-22222222-22222222----||
D||----22222222-22222222-22222222-22222222----||

e||----------------------55555555----||
B||----33333333-44444444-xxxxxxxx----||
G||----xxxxxxxx-xxxxxxxx-xxxxxxxx----||
D||----22222222-22222222-22222222----||
A||----22222222-22222222-22222222----||
D||----22222222-22222222-22222222----||

Solo:
Guitar I
e||---------------------------------------------||
B||-----5-5-57~---5-5-57~---5-5-57s10-8~-7~-----||    
G||---------------------------------------------|| \/ |_| (on 2nd loop 
D||----7-7-7-----7-7-7-----7-7-7----------------|| /\   |  do not play the
A||---------------------------------------------||         last 7~)
D||---------------------------------------------||

Guitar II
e||----------------------------------------------||
B||----------------------------------------------||    
G||----4444444---7777777-----------------7777----|| \/ |_| (ring only on 
D||----4444444---7777777---5555555---77777777----|| /\   |  1st-2nd time)
A||----2222222---5555555---5555555---77775555----||
D||------------------------5555555---7777--------||

Bridge:
e||-------------------------------------------||
B||-------------------------------------------||
G||----77777777-------------------77776666----||
D||----77777777-55555555-77777777-77777777----||
A||----55555555-55555555-77777777-55554444----||
D||-------------55555555-77777777-------------||

e||----------------------------||
B||----------------------------||
G||----------------------------||
D||----44444444-55555555-7~----||
A||----44444444-55555555-7~----||
D||----44444444-55555555-7~----||

Prechorus:
e||------------------------------------||
B||------------------------------------||
G||-----------666666--------6666s77----||
D||----555-57-xxxxxx-999-97-xxxxxxx----||
A||----555-57-444444-999-97-4444s55----||
D||----555-57--------999-97------------||

Chorus:
e||--------------------------------------------------||
B||--------------------------------------------------||     _
G||-------------------7777---------------------------|| \/  _|
D||----5555-7777-9999-7777--5555-7777-2-02-02-222----|| /\ |_
A||----5555-7777-9999-5555--5555-7777-2-02-02-222----||
D||----5555-7777-9999-------5555-7777-2-02-02-222----||

Outro:
e||-----------------------------------------------||
B||-----------------------------------------------||
G||-----------------------------------------------||
D||----9~----7~----5~--2~-4~-7~-2~----4~----5~----||
A||----9~----7~----5~-----------2~----4~----5~----||
D||----9~----7~----5~-----------2~----4~----5~----||

-- END --
Добавлено: 22.07.2012
Другие материалы по этой песне:

Страница создана 22.07.2012
http://primanota.ru/alesana/labyrinth-chords.htm
Привет, Гость.
Предлагаем пройти революционный курс по гитаре.
Подарок от PrimaNota.Ru, забирай!