PrimaNota.ru - самый крупный в мире бесплатный архив песенных текстов, аккордов, табулатур и нот


Alesana - Hymn For The Shameless - текст песни, таба, бас-таба, видео

Регистрация Запомнить меня
Войти через:  Facebook Google Twitter Vk Yandex Mail.ru

Alesana - Hymn For The Shameless - текст песни, таба, бас-таба, видео

Печатать
Просмотров: 146
Id noticed that the only tab for this song was a bass tab, so I thought Id do
 a guitar tab. I only did one guitar, but unless you have more than one pair
 of arms, I figured that'd do for now. I might do a full band tab on guitar
 pro, but that'll have to wait. Hope this helps :)XD

Drop D
DADGBE

Random eerie intro thing....

Verse 1

     . . . . . . . . . . . . . . . . . . . . . . . . 
E|---------------------------------------------------------|
B|---------------------------------------------------6--/8-|
G|---7-5-5-5-5-5-7-5-7-5-5-5-5-5-7-5-7-5-5-5-5-5-7-5-------|
D|---------------------------------------------------------|
A|---------------------------------------------------------|
D|---------------------------------------------------------|

     . . . . . . . . . . . . . . . .
E|-----------------------------------------|
B|-----------------------------------8--\6-|
G|---7-5-5-5-5-5-7-5-7-5-5-5-5-5-7-5-------|
D|-----------------------------------------|
A|-----------------------------------------|
D|-----------------------------------------|

     . . . . . . . . . . . . . . . . . . . . . . . . 
E|---------------------------------------------------------|
B|---------------------------------------------------6--/8-|
G|---7-5-5-5-5-5-7-5-7-5-5-5-5-5-7-5-7-5-5-5-5-5-7-5-------|
D|---------------------------------------------------------|
A|---------------------------------------------------------|
D|---------------------------------------------------------|

     . . . . . . . . . . . . . . . .
E|--------------------------------------------------|
B|-----------------------------------8--\6--/10--\8-|
G|---7-5-5-5-5-5-7-5-7-5-5-5-5-5-7-5----------------|
D|--------------------------------------------------|
A|--------------------------------------------------|
D|--------------------------------------------------|

Pre-Chorus

E|---------------------------------------------------------|
B|-8-10-8---------------------8-10-8-----------------------|
G|--------10-8-10-8/10-8/10----------10-8-10-8/10-8/10/8---|
D|---------------------------------------------------------|
A|---------------------------------------------------------|
D|---------------------------------------------------------|

Chorus

E|---------------------------------------------------------------------|
B|---------------------------------------------------------------------|
G|-7-5---------2-2-2-2-3-----2-------------------------2-3-------------|
D|-----8-7---------------------3-3-2-0-3-2-----5---3-----------7-8-7---|
A|---------------------------------------------------------------------|
D|---------------------------------------------------------------------| X2

Random Screamy Interlude

Verse 2

E|-------------------------------------------------------------|
B|-------------------------------------------------------------|
G|-------------------------------------------------------------|
D|-8-5-7-------0-----0-7-------0-----0-7-------0-----0-7-------|
A|-------------------------------------------------------------|
D|-------0-0-0---0-0-----0-0-0---0-0-----0-0-0---0-0-----0-0-0-| x4

E|-------|
B|-------|
G|-------|
D|-8-5-7-|
A|-------|
D|-------|

Pre Chorus Repeat

Chorus Repeat

Bridge Part

E|-17----17-20----------------------17----17-20----------|
B|----15-------17-/18---\17---/15------15-------17-/18---|
G|-------------------------------------------------------|
D|-------------------------------------------------------|
A|-------------------------------------------------------|
D|-------------------------------------------------------|

Bass Riff

Breakdown

E|-----------------------------------------|
B|-----------------------------------------|
G|-----------------------------------------|
D|-----------------------------------------|
A|-5-5-5-5-5-5-5-5-5-6-5---5-5-5-5-5-5-5-6-|
D|-----------------------------------------| X2

E|----------------------------------|
B|----------------------------------|
G|----------------------------------|
D|----------------------------------|
A|-00-0-0-00-0-0000-0-0-0-0-0-0-0-0-|
D|-00-0-0-00-0-0000-0-0-0-0-0-0-0-0-| X2

^^ or a pattern to that effect

Pre Chorus X3

Chorus (all of it) X2 

Chorus repeated until faded out
Добавлено: 14.07.2013
Другие материалы по этой песне:

Страница создана 02.05.2012
http://primanota.ru/alesana/hymn-for-the-shameless-chords.htm
Привет, Гость.
Предлагаем пройти революционный курс по гитаре.
Подарок от PrimaNota.Ru, забирай!