PrimaNota.ru - самый крупный в мире бесплатный архив песенных текстов, аккордов, табулатур и нот


Al Di Meola - Black Orpheus - таба, видео

Регистрация Запомнить меня
Войти через:  Facebook Google Twitter Vk Yandex Mail.ru

Al Di Meola - Black Orpheus - таба, видео

Печатать
Просмотров: 217
                       MANHA DE CARNAVAL(Black Orpheus)                         


JOHN MCLAUGHLIN,AL DI MEOLA
AL DI MEOLA



     E  E  E  E  E  E  E  E     E  E  E  E  E  E  S S E   
E||--------------------------|--------0------------------|
B||-----5--3--5--L--3--5-----|-----3-----3--L--1--0------|
G||-----5--4--5--L--4--5-----|--2-------------------2----|
D||--------------------------|--3--------3--L--3--3---3--|
A||--0--L--L-----------------|---------------------------|
E||-----------3--L--L--L--L--|--1-----L--0--L--L--L-L-L--|


  E  E  E  E  E  E  E  E     E  E  E  E  Q    Q       E  E  E  E  E  E  E  E   
--------------------------|--------0---------------|--------------------------|
-----5--3--5--L--3--5-----|-----3-----3--L---------|--------------------------|
-----5--4--5--L--4--5-----|--2----------------1----|--------5-----------7-----|
--------------------------|--3--------3------------|-----------------6--------|
--0--L--L-----------------|------------------------|-----7--------------------|
-----------3--L--L--L--L--|--1-----L--0--L----L----|--5--------5--7--------7--|


  E  E  E  E  E  E  E  E     E  E  E  E  E  E  E  E   
--------------------------|--------------------------|
--------------------------|--------------------------|
--------9-----------7-----|--------5-----------7-----|
-----7-----------6--------|-----------------6--------|
--------------------------|-----7--------------------|
--8--------8--7--------7--|--5--------5--7--------7--|


  E  E  E  E  E  E  E  E     E  E  E  E  E  E  E  E   
--------------------------|--------------------------|
--------------------------|--------------------------|
--------9-----------7-----|--------5-----------7-----|
-----7-----------6--------|-----------------6--------|
--------------------------|-----7--------------------|
--8--------8--7--------7--|--5--------5--7--------7--|


  E  E  E  E  E  E  E  E     E  E  E  E  E  E  E  E   
--------------------------|--------------------------|
--------------------------|--------6-----------8-----|
--------9-----------9-----|-----------------6--------|
-----7-----------7--------|-----7--------------------|
--------------------------|--5--------5--7--------7--|
--8--------8--9--------9--|--------------------------|


                                 ^     ^               
  E  E   E  E  E  E  E  E     E  E  E  E  E  E  E  E   
---------------------------|--------------------------|
--------10-----------8-----|-----6-----5--L-----------|
-----7------------6--------|-----5-----5--L-----------|
---------------------------|-----5--------------------|
--8---------8--7--------7--|--5-----5--------------5--|
---------------------------|-----------------5--8-----|


           ^     ^             ^     ^     ^                                  
  Q     E  E  E  Q    E     E  E  E  E  E  E  Q       Q    E  E  E  E  E  E   
-------------------------|-------------------------|-------------0-----------|
-----------1-----0-------|-----5-----3--L--3-------|-------1--------0--------|
-----------2-----2-------|-----4-----4--L--4-------|-------2-----------2-----|
-----------3-------------|-----5-------------------|-------------------------|
--8S---------------------|--3-----3-----------3----|-------------------------|
--------3-----3-------3--|-------------------------|--1-------1-----------0--|


                        ^        ^    ^                  
         |-3-|                                           
  Q.     S S S E  E  E  E     E  Q    Q    S  S S  S E   
---------------------------|----------------------------|
-----------3------------6--|----------8----6h-8-6h-8-6--|
-------------2----------5--|-----7----7----7----7-------|
---------3-----3--------6--|-----6----6-----------------|
--2---------------2-----5--|-----7----7-----------------|
---------------------------|----------------------------|


        ^                    ^     ^               
  E  E  E  E  E  E  E  E     S E.  Q.     Q    E   
--------------------------|---------------0-------|
--------------------------|--------3--------------|
--------5-----------4-----|--2-----1-----------9--|
--------5-----------------|-----------------------|
-----7-----------5--------|-----------------------|
--5--------0--3--------0--|--1-----0--------------|


           |-3|   |--3--|          |-6|  |--6--|  
  S     S  E  S   S  S  S  E  Q    E  S  S  S  S  
----11g10--L--8h-10p-8S-7h-8--L----L--7h-8p-7----|
----------------------------------------------10-|
--L----------------------------------------------|
-------------------------------------------------|
-------------------------------------------------|
-------------------------------------------------|


                     |--3--|           |----3---|  |---3---|          
   S  E.    H        E  E  E      Q    E    E   E  E   E   E    Q     
------------------------7------|-------------------------------------|
---L-10~----L--------9---------|-------------------------------------|
---------------------------7S--|--9----L--8g7------7-----------------|
-------------------------------|---------------10-----10--10~---L----|
-------------------------------|-------------------------------------|
-------------------------------|-------------------------------------|


                                 |---3--|                          |---3--|    
   S S   S S S S   S S S  S S S  E  E   E      H         E     E   E  E   E    
---------------------8-7------7------------|----------------------------------|
---------------8h-10-----10-9---10--9--10--|--11~-----------8g10---L--8p--7h--|
-----------7-8-----------------------------|----------------------------------|
---L-9h-10---------------------------------|----------------------------------|
-------------------------------------------|----------------------------------|
-------------------------------------------|----------------------------------|


  Q.     Q    Q    E       S  E.    Q     E.   S  S   S   S  S  
-----------------------|---------------------------------------|
--8------6----5----6S--|--10-10~----L-----L---10---------------|
-----------------------|-------------------------12h-13p-12-10-|
-----------------------|---------------------------------------|
-----------------------|---------------------------------------|
-----------------------|---------------------------------------|


   |---3---|                               |---3---|   
   S   S   S  S   S  E.  S  S  S  S     S  E   E   E   
--------------------------------------------------12--|
---------------------------------10-------13--15------|
--10h-12p-10S-9h-10--L---9----10----13g14-------------|
---------------------------12-------------------------|
------------------------------------------------------|
------------------------------------------------------|


   H          E  E   E   E       Q.      E      Q      E   E    
--13~------------------------|---------------------------------|
------------------------12~--|---L------13--13g15S----13-------|
-----------------9--10-------|---------------------------------|
-------------12--------------|----------------------------10~--|
-----------------------------|---------------------------------|
-----------------------------|---------------------------------|


               |----3----|                                 
   H           Q    Q    Q        H          E  E  E  E    
------------------------------|--------------------7------|
------------------------------|--10~---------L--9---------|
--------------------7----9----|-----------------------9~--|
---L--------8g10--------------|---------------------------|
------------------------------|---------------------------|
------------------------------|---------------------------|


       |---3--|                    |-3-|                
  Q    E  E   E   H           Q    E   Q    Q     Q     
---------------------------|---------------------------|
---------------------------|----------------9----12----|
--L----L--7S--5S--7--------|--L----7S--9---------------|
---------------------------|---------------------------|
---------------------------|---------------------------|
---------------------------|---------------------------|


   S   S  S  S   H.              E  E  E  E  Q    E  E   
------------------------------|--------0----------------|
--13p-12-10-10~--L------------|-----3-----3--L----------|
------------------------------|-----2-----2--L----1--9--|
------------------------------|-------------------------|
------------------------------|-------------------------|
------------------------------|--1--L--L--0--L----L--L--|


  S E  S  H        S E   S     S  E.    H         S E  S  
----8--8~-L--------L-7-----|---------------------------7-|
------------------------10-|---L-10~----L---------L-9----|
--L------------------------|-----------------------------|
---------------------------|-----------------------------|
---------------------------|-----------------------------|
---------------------------|-----------------------------|


                       ^                                
  S E  S  Q    Q.      E      Q.      S  S Q.     S  S  
--L-----------------------|----------12-10-8------7-10-|
-----------------------0--|---L------------------------|
----9--9~-L----L-------9--|---L------------------------|
----------------------10--|---L------------------------|
-----------------------0--|---L------------------------|
--------------------------|----------------------------|


   |--6-|   |--6--|           |-6-|  |--6--|                                  
   S  S S   S  S  S H         S S S  S  S  S     S  E.    Q.     S  S S  E.   
---L--L-8h-10p-8p-7-8~--------L-L-7h-8p-7----|-------------------------------|
------------------------------------------10-|---L-10~----L------7S-9-L-12---|
---------------------------------------------|-------------------------------|
---------------------------------------------|-------------------------------|
---------------------------------------------|-------------------------------|
---------------------------------------------|-------------------------------|


   H         S  S  S S  S  S  S  S  
-----------------------------------|
-----------------------------10-13-|
--10~----------------9-10-12-------|
---------------11-12---------------|
-----------------------------------|
-----------------------------------|


   S  S  S   S  S  T  T  S  S  S  S  S  S  S   S  E   
--10-12-13S-15--L-12---------------------------------|
---------------------12------------------------------|
------------------------14-12-10-12------------------|
------------------------------------11-10------------|
------------------------------------------12S-10-12--|
-----------------------------------------------------|


   Q.         E   Q.      S  S     W                  
-------------------------------|---------------------|
-------------------------------|--12~----------------|
--------------------------9-10-|---------------------|
----------10g12--12~-----------|---------------------|
---L---------------------------|---------------------|
-------------------------------|---------------------|


              |-----3----|                                             
   H          Q     Q    Q        Q.       T   T   T  T   Q    E   E   
------------------------------|---------------------------------------|
------------------------------|--10~------10h-12p-10p-9h-10----9--12--|
-------------------------9----|---------------------------------------|
--10~--------10----12---------|---------------------------------------|
------------------------------|---------------------------------------|
------------------------------|---------------------------------------|


                     |--6--| |---6--|  
  H         E   S  S S  S  S S   S  S  
--------------------------------------|
--9~--------L----------------9S-10-12-|
---------------------9-10-12----------|
---------------10-12------------------|
--------------------------------------|
--------------------------------------|


                                                                  |--3-|        
   S  S  S  S  S  S  S  S   Q.      S  S      H         E   S  S  S  S S  S  S  
-----10-12-13-12-10-------------------15S-|--12---------L--10S-8---------------|
--13----------------13-12~--L-------L-----|----------------------12-10-9-------|
------------------------------------------|------------------------------12-10-|
------------------------------------------|------------------------------------|
------------------------------------------|------------------------------------|
------------------------------------------|------------------------------------|


                      |---3--|                                      
  S  S  S S  S  S S S E  E   E   E   E     E  E  E  E  E  E  E  E   
--------------------------------12--10--|--------------------------|
-------------------------9--12----------|--------------------------|
--9-----------------9-L-----------------|--------5-----------7-----|
----12-10-9-------9---------------------|-----------------6--------|
------------12-11-----------------------|-----7--------------------|
----------------------------------------|--5--------5--7--------7--|


  E  E  E  E  E  E  E  E     E  E  E  E  E  E  E  E   
--------------------------|--------------------------|
--------------------------|--------------------------|
--------9-----------7-----|--------5-----------7-----|
-----7-----------6--------|-----------------6--------|
--------------------------|-----7--------------------|
--8--------8--7--------7--|--5--------5--7--------7--|


     ^     ^     ^     ^                              
  E  E  E  E  E  E  E  E     Q    S S E  E  E  E  E   
--------------------------|--------------------------|
--------------------------|-------8---------------8--|
-----9-----7-----5-----4--|--------------7-----------|
-----7-----6-----5-----5--|---------8-------8--------|
--------------------------|-----------7--------7-----|
--8-----7-----5-----3-----|--0-----------------------|


  E  E  E  E  E  E  E  E     E  E  E  E  E  E  E  E   
--------------0-----------|--------------------------|
--------6-----------6-----|--------6-----------8-----|
-----------------------6--|-----------------6--------|
-----5-----5-----5--------|-----7--------------------|
--0-----------------------|--5--------5--7--------7--|
--------------------------|--------------------------|


   ^   ^     ^      ^   ^  ^             ^               
   E   E  E  E  E   E   E  E     Q    E  E  E  E  E  E   
------------------------------|-------------------------|
--10--10-----8-----10S--6--6--|--L-------6--------------|
---7---7-----6------7S--5--5--|--L-------5--------------|
------------------------------|-------------------------|
---8---8-----7------8S--5--5--|--L-------5--8-----------|
------------------------------|----------------8--5--7--|


  E  E  E  E  E  E  E  E     E  E  E  E  E  E  E  E   
--------------------------|--------------------------|
--------6-----------------|--------------------------|
-----------7-----7--------|--------5-----------4-----|
-----7--------------6-----|-----7-----------0--------|
--------------7--------7--|--------------------------|
--L-----------------------|--5--------5--3--------3--|


                                    ^         ^                         
  E  E  E  E  E  E  E  E     Q.     E  Q.     E      Q    H.            
--------------------------|-----------------------|--------------------|
--------1--------0--------|---------8--L------6S--|--L-----------------|
-----------2-----------2--|---------7--L------7S--|--L-----------------|
-----2--------------1-----|---------6--L------6S--|--L-----------------|
--------------------------|---------7--L------7S--|--L-----------------|
--2-----------1-----------|--0--------------------|--------------------|


  ^                   ^        ^           ^        ^         
  W                   H        H           H        H         
--5----------------|--5--------3--------|--0--------3--------|
--5----------------|--6--------5--------|--1--------5--------|
--5----------------|--5--------4--------|--2--------4--------|
--7----------------|--5--------5--------|--3--------5--------|
--7----------------|--5--------3--------|-----------3--------|
--5----------------|--------------------|--------------------|


  ^        ^           ^                                      
  H        H           W                   W                  
--5-----------------|--5----------------|--L----------------||
--6--------8--------|--5----------------|--L----------------||
--5--------7--------|--7----------------|--L----------------||
--5--------7--------|--5----------------|--L----------------||
--5--------7--------|--7----------------|--L----------------||
--------------------|--5----------------|--L----------------||




Duration Legend
---------------
W - whole
H - half
Q - quarter
E - 8th
S - 16th
T - 32nd
X - 64th
. - note dotted
|-n-|  - n-tuplets


Tablature Legend
----------------
L - tied note
x - dead note
g - grace note
(n) - ghost note
> - accentuded note
NH - natural harmonic
AH - artificial harmonic
TH - tapped harmonic
SH - semi harmonic
PH - pitch harmonic
h - hammer on
p - pull off
b - bend
br - bendRelease
pb - preBend
pbr - preBendRelease
brb - bendReleaseBend
\n/ - tremolo bar dip
\n - tremolo bar dive
-/n - tremolo bar Release up
/n\ - tremolo bar inverted dip
/n - tremolo bar return
-\n - tremolo bar Release down
S - shift slide
s - legato slide
/ -  slide into from below or out of upwards
\ -  slide into from above or out of downwards
~ - vibrato
W - wide vibrato
tr - trill
TP - tremolo picking
T - tapping
S - slap
P - pop
< - fade in
^ - brush up
v - brush down
Добавлено: 02.05.2012
Другие материалы по этой песне:
  • Аккорды и текст

Страница создана 02.05.2012
http://primanota.ru/al-di-meola/black-orpheus-chords.htm
Привет, Гость.
Предлагаем пройти революционный курс по гитаре.
Подарок от PrimaNota.Ru, забирай!