PrimaNota.ru - самый крупный в мире бесплатный архив песенных текстов, аккордов, табулатур и нот


Al Di Meola - The Wizard - таба, видео

Регистрация Запомнить меня
Войти через:  Facebook Google Twitter Vk Yandex Mail.ru

Al Di Meola - The Wizard - таба, видео

Печатать
Просмотров: 131
-------------------------------------------------------------------------------
                             The Wizard – Al di Meola
-------------------------------------------------------------------------------

Tuning: Standard


Intro:
e|----------------------| Repeat
B|----------------------|
G|----8--8---6h8--8-----|
D|----------------------|
A|----------------------|
E|----------------------|


Part 1:
e|-------------------------------6------------------------------------------|
B|---------------------------------7-------6--9-------------9----7p6--------|
G|------------------10---------------6--8-------------6--8-------------8b---|
D|--8--------11---------8--------------------------8------------------------|
A|----9----------9----------------------------------------------------------|
E|------9-------------------------------------------------------------------|

e|-------------------------9-9---6-----9-6-9-6-----9-6----------------------|
B|----------6-7-9----6-7-9---------------------9-7-----9-7-9-7-6---7-6------|
G|------6-8------------------------------------------------------8-----8-6--|
D|--6-8--------------------------------------------------------------------8|
A|--------------------------------------------------------------------------|
E|--------------------------------------------------------------------------|

Part 2:
e|-------------------------------6------------------------------------------|
B|---------------------------------7-------6--9-------------9----7p6--------|
G|------------------10---------------6--8-------------6--8-------------8b---|
D|--8--------11---------8--------------------------8------------------------|
A|----9----------9----------------------------------------------------------|
E|------9-------------------------------------------------------------------|

e|--------------------------------13-16-13----------16-13-16-13-16b-13------|
B|--------------13-14-16-13-14-16-------------------------------------------|
G|-----------13-------------------------------------------------------------|
D|--13-15-16----------------------------------------------------------------|
A|--------------------------------------------------------------------------|
E|--------------------------------------------------------------------------|

e|--16-13----------------------------------------------------------13-------|
B|--------16-14-13-16-14-13----------------------13-14-16-13-14-16----------|
G|--------------------------15-13----------13-15----------------------------|
D|--------------------------------15-13-15----------------------------------|
A|--------------------------------------------------------------------------|
E|--------------------------------------------------------------------------|



Part 3:
e|-------------------------------6------------------------------------------|
B|---------------------------------7-------6--9-------------9----7p6--------|
G|------------------10---------------6--8-------------6--8-------------8b---|
D|--8--------11---------8--------------------------8------------------------|
A|----9----------9----------------------------------------------------------|
E|------9-------------------------------------------------------------------|

e|-----------------------------|(X4)
B|---9h11----7h9---6h7---4h6---|
G|-----------------------------|
D|-----------------------------|
A|-----------------------------|
E|-----------------------------|

Part 4:
e|-------------------------------6------------------------------------------|
B|---------------------------------7-------6--9-------------9----7p6--------|
G|------------------10---------------6--8-------------6--8-------------8b---|
D|--8--------11---------8--------------------------8------------------------|
A|----9----------9----------------------------------------------------------|
E|------9-------------------------------------------------------------------|

e|----------9---9-6-----9-6-----------9-6-9-6-----11--------|
B|----6-7-9---------9-7-----------7-9---------9-7----11-----|
G|--8------------------------8-10---------------------------|
D|----------------------------------------------------------|
A|----------------------------------------------------------|
E|----------------------------------------------------------|

e|-----------9-6-9-6-----7-6---7-6-----------------|
B|-------7-9---------9-7-----9-----9-7-6-9-7-6-----|
G|--8-10-------------------------------------------|
D|-------------------------------------------------|
A|-------------------------------------------------|
E|-------------------------------------------------|

e|--------------------| Repeat
B|--------------------|
G|----8--8---6h8--8---|
D|--------------------|
A|--------------------|
E|--------------------|

Part 5:
e|---------------------------------------------------| (X4)
B|-----------------------6--------6h8h9p8----9p8p6---|
G|------------5---8---6---------8--------------------|
D|--6p5--------------------8-------------------------|
A|-------8-6-----------------------------------------|
E|---------------------------------------------------|






e|--16-15-13--------------------------------11--------------|
B|-----------13-----------------------11/13------13/14-13---|
G|---------------15-13-12----12\10-8------------------------|
D|----------------------------------------------------------|
A|----------------------------------------------------------|
E|----------------------------------------------------------|

e|--16-15-13-------13------------------------------------11-----------------|
B|-----------13-16--------13-----------------------11-13----13----11--------|
G|---------------------15----13----12-----------13-------------------13-12--|
D|------------------------------15------13-15-------------------------------|
A|--------------------------------------------------------------------------|
E|--------------------------------------------------------------------------|

e|--16-15-13--------13----14/16--15-13-----13-------13--------|
B|--------------------------------------------13-16-----16----|
G|------------15----------------------------------------------|
D|------------------------------------------------------------|
A|------------------------------------------------------------|
E|------------------------------------------------------------|

e|---------------------13---------------------------16-18-18b--18b--18b-18b-|
B|--13-13-----------------13-11---------------------------------------------|
G|---------15-13-12-------------13---12h13p12p10----------------------------|
D|------------------13------------------------------------------------------|
A|--------------------------------------------------------------------------|
E|--------------------------------------------------------------------------|

e|--18b-16-15--16-----|
B|---------------18---|
G|--------------------|
D|--------------------|
A|--------------------|
E|--------------------|

Part 6:
e|-------------------|Repeat
B|--6---7---9--11----|
G|-------------------|
D|-------------------|
A|-------------------|
E|-------------------|
Добавлено: 13.06.2013
Другие материалы по этой песне:

Страница создана 13.06.2013
http://primanota.ru/al-di-meola/the-wizard-chords.htm
Привет, Гость.
Предлагаем пройти революционный курс по гитаре.
Подарок от PrimaNota.Ru, забирай!