PrimaNota.ru - самый крупный в мире бесплатный архив песенных текстов, аккордов, табулатур и нот


Al Di Meola - Land of the Midnight Sun - бас-таба, видео

Регистрация Запомнить меня
Войти через:  Facebook Google Twitter Vk Yandex Mail.ru

Al Di Meola - Land of the Midnight Sun - бас-таба, видео

Печатать
Просмотров: 203


Land Of The Midnight Sun - Al Di Meola
(Land Of The Midnight Sun)
Bass Tab

BY MAX COBURN
maximum28@aol.com

Standard Tuning: EADG


MAIN MELODY 1:
______________________________________________________________________________________________
(                                             2x                                       ) then:
                                                                    [  first time only ]          
G]-------4---------4---------4---------4----------------------------|----4---------4---|
D]----4----4----4----4----4----4----4----4----4--4-5----------------|-4----4----4----4-|
A]-2---------2---------2---------2---------2----------3-2--0-2-0--2-|--------2---------|
E]------------------------------------------------------------------|------------------|,

                  (                                  2x                                       )
                                                                             [ first time only]
G]-2-4-2-0---2-0--|---5--10-5----5--10------4--9------4--9-----2--7-2----2--7|----------------|
D]---------4-----4|3----------3----------2---------2--------0---------0------|----------------|
A]----------------|----------------------------------------------------------|-4--0----0--2--4|
E]----------------|----------------------------------------------------------|-------2--------|
                                           
G]-----------------------------------------|----------------------------------------------|
D]----4--6-9--7--11/1211(hold for 8 beats)|----------------------------------------------|
A]-4---------------------------------------|----------------------------------------------|
E]-----------------------------------------|-2---2---------2---2-----0-2-1--0---0---------|

G]-----------------------------|-------------------------------------------|
D]-4-6-7-6--4--2-4-6-4-2-4-4-4-|-------------------------------------------|
A]-----------------------------|-------------------------------------------|
E]-----------------------------|-2---2---------2---2---------0---0---------|

                               [                    x                  ] 
G]-----------------------------|-------4-------------------------------|
D]-4-6-7-6--4--2-4-6-4-2-4-----|----4----4-----------------------------|
A]-----------------------------|-2---------6---2/4--2(hold for 5 beats)|
E]-----------------------------|---------------------------------------|

G]-4--6--7----/13---9---7-6-4/64-2-4-2(hold for 4 beats)|Play [x] again.
D]-------------------------------------------------------|
A]-------------------------------------------------------|
E]-------------------------------------------------------|

G]-4--6--7----/16---9---7-6-4/64-2-4-2(hold for 4 beats)|Play [x] without the hold.
D]-------------------------------------------------------|
A]-------------------------------------------------------|
E]-------------------------------------------------------|
                                                                   [        y       ]
G]-4--6--7---11-9-7-14--13--11--9-7-6/76-4-2-4-2(hold for 4 beats)|--------8-6-4--9|
D]-----------------------------------------------------------------|-7-6-4----------|
A]-----------------------------------------------------------------|----------------|
E]-----------------------------------------------------------------|----------------|

REPEAT: 7x
G]----------------------|[play y]|----------------------|
D]---------------------9|        |----------------------|
A]-2-2-2----0-0-0-------|        |-2-2-2----0-0-0-------|
E]-----------------4-2--|        |----------------------|
____________________________________________________________________________________________

SOLO RIFF #1:
____________________________________________________________________________________________
Repeat as many times as necessary if you're coverin this song.
G]-----------------------------------------------------------------------------------------|
D]-3-3---------3-3----------------------------------------5-4-2-0--2--------2-2---------2-2|
A]-------3-3---------3-3---------4-4---------4-4---2------------------0-0---------0-0------|
E]-------------------------3-3---------3-3-------------------------------------------------|
____________________________________________________________________________________________

SOLO TRANSITION #1:

G]----------------------------------------------|
D]----------------------------------------------|
A]---------------------------0(hold 4)----------|
E]-3(hold 4 beats)-2(hold 4)-----------0(hold 8)|

SOLO RIFF #2:
___________________________________________________________________________________________
Repeat as many times as necessary if you're coverin this song.
G]-------------------------------------------|-----------------------------|
D]-------------------------------------------|-4-6-7-6--4--2-4-6-4-2-4-4-4-|
A]-------------------------------------------|-----------------------------|
E]-2---2---------2---2---------0---0---------|-----------------------------|
___________________________________________________________________________________________

SOLO TRANSITION #2:

G]-----------------------------|--------------4-2--9-6----|
D]-4-6-7-6--4--2-4-6-4-2-4-4-4-|---------4-2--------------|
A]-----------------------------|----4-2-------------------|
E]-----------------------------|-2------------------------|

(REPEAT 3x)
G]---------------------------|--------------------------------|
D]-2--5--0------2--5--0------|----4--6-9---------4--6---------|
A]---------------------------|-4----------2---4---------------|
E]---------------------------|-------------------------5-4-2-0|

G]---------------------------|-----------------------------------------|
D]-2--5--0------2--5--0------|----4--6-9--7--11/1211(hold for 8 beats)|
A]---------------------------|-4---------------------------------------|
E]---------------------------|-----------------------------------------|

SOLO RIFF #3:
__________________________________________________________________________________________
Repeat as many times as necessary if you're coverin this song.
G]-7-6-4-6-7-6--9-11-------7-6-4-6-7-6--9-11--------|
D]--------------------4-4---------------------10-9--|
A]--------------------------------------------------|
E]--------------------------------------------------|
__________________________________________________________________________________________

SOLO TRANSITION #3:

(REPEAT 4x)
G]-------------2-4-2-4-6-4-2-------------------------------------|
D]-----0-0-4-4---------------------------------------------------|
A]-2-2-----------------------0-0-0-0-2-4-2-0-0-0-0-0-2-4-2-0-----|
E]-----------------------------------------------------------2---|

REPEAT EVERYTHING IN  =  4x
==========================================================================================
G]---------------------------------------|
D]--------2---------2---------4---------4|
A]-----2---------2---------4---------4---|
E]-0---------0---------2---------2-------|

G]-------------2-4-2-4-6-4-2-------------------------------------|
D]-----0-0-4-4---------------------------------------------------|
A]-2-2-----------------------0-0-0-0-2-4-2-0-0-0-0-0-2-4-2-0-----|
E]-----------------------------------------------------------2---|
==========================================================================================
(REPEAT 4x)
G]-------------2-4-2-4-6-4-2-------------------------------------|
D]-----0-0-4-4---------------------------------------------------|
A]-2-2-----------------------0-0-0-0-2-4-2-0-0-0-0-0-2-4-2-0-----|
E]-----------------------------------------------------------2---|

(REPEAT 3x)
G]-------------------------------------|
D]-------------------------------------|
A]-0-0-0-0-2-4-2-0-0-0-0-0-2-4-2-0-----|
E]---------------------------------2---|

G]--------------4-2--9-6----|
D]---------4-2--------------|
A]----4-2-------------------|
E]-2------------------------|

MAIN MELODY 2:

G]-------4---------4---------4---------4----------------------------|-2-4-2-0---2-0--|
D]----4----4----4----4----4----4----4----4----4--4-5----------------|---------4-----4|
A]-2---------2---------2---------2---------2----------3-2--0-2-0--2-|----------------|
E]------------------------------------------------------------------|----------------|

G]---5--10-5----5--10------4--9------4--9-----2--7-2----2--7|----------------|
D]3----------3----------2---------2--------0---------0------|----------------|
A]----------------------------------------------------------|-4--0----0--2--4|
E]----------------------------------------------------------|-------2--------|

G]---5--10-5----5--10------4--9------4--9-----2--7-2----2--7|
D]3----------3----------2---------2--------0---------0------|
A]----------------------------------------------------------|
E]----------------------------------------------------------|

G]----------------------------------------------9(hold until cue)-10-11|
D]----4--6-9--7--9----4--6-9--7--9----4--6-9--7-------------------------|
A]-4---------------4---------------4------------------------------------|
E]----------------------------------------------------------------------|

Добавлено: 01.01.2014
Другие материалы по этой песне:

Страница создана 25.02.2012
http://primanota.ru/al-di-meola/land-of-the-midnight-sun-chords.htm
Привет, Гость.
Предлагаем пройти революционный курс по гитаре.
Подарок от PrimaNota.Ru, забирай!