PrimaNota.ru - самый крупный в мире бесплатный архив песенных текстов, аккордов, табулатур и нот


Al Di Meola - And I Love Her - таба, видео

Регистрация Запомнить меня
Войти через:  Facebook Google Twitter Vk Yandex Mail.ru

Al Di Meola - And I Love Her - таба, видео

Печатать
Просмотров: 232
Авторы: John Lennon, Paul McCartney

-------------------------------------------------------------------------------
                             And I Love Her - Al di Meola
-------------------------------------------------------------------------------

Tabbed by: JKlinghoffer

Tuning: Standard

From the Album "All Your Life"

Play these notes palm muted, and pick more or less powerfull to gain the sound effects 
Al di Meola gets.

Intro/Verse (palm muted)

e|----------------|--------------------------------|------------------------------------|
B|----------------|--------------------------------|------------------------------------|
G|----------------|-------0---------0---0----------|---0-0---0-------0------------------|
D|------0---------|-------------2------------2-----|-2---------2--2------------0--------|
A|-0---------4----|------------------------------2-|-----------------------0-------4----|
E|----------------|-0-------------0------------0---|------------0-----------------------|

e|------------------------------|----------------------------------|
B|------3--------2---2----------|-----3---2-------2----------------|
G|-----------2------------2-----|---2-------2---2------------------|
D|--------------------------2---|-2-------------------------0------|
A|-2-----------2--------------2-|-------------2---------0--------4-|
E|------------------------------|----------------------------------|

e|--------------------------------|------------------------------------|
B|--------------------------------|------------------------------------|
G|-------0---------0---0----------|---0-0---0-------0------------------|
D|-------------2------------2-----|-2---------2--2------------0--------|
A|------------------------------2-|-----------------------0-------4----|
E|-0-------------0------------0---|------------0-----------------------|

e|------------------------------|----------------------------------|
B|------3--------2---2----------|-----3---2-------2----------------|
G|-----------2------------2-----|---2-------2---2------------------|
D|--------------------------2---|-2-------------------------0------|
A|-2-----------2--------------2-|-------------2---------0--------4-|
E|------------------------------|----------------------------------|


now let the strings ring


e|----------0------2------3---|-9--7----10-------------------------|
B|------------0------0------0-|-7----------------------------------|
G|--------0------0------0-----|-7----7-----------------------------|
D|-----2----------------------|-7----------------------7-----------|
A|----------------------------|----------------------9---9---------|
E|-0--------------------------|-----------------7-10-------10-7----|

e|---------0------2------3---|-9-7----------------------------------------------|
B|-----------0------0------0-|-7------------------------------------------------|
G|-------0------0------0-----|-7----9/11--9-7-6---------------------------------|
D|-----2---------------------|-7----------------7-------------------------------|
A|---------------------------|--------------------9-7---------------------------|
E|-0-------------------------|------------------------10------------------------|


e|----------0-----2------3---|-9-7-------------------------------|--------------|
B|------------0-----0------0-|-7----10/12--7---------------------|--------------|
G|-------0------0------0-----|-7-------------10-9-7-------9------|--------------|
D|-----2---------------------|-7--------------------9-/12---12---|--------------|
A|---------------------------|---------------------------------9-|10------------|
E|-0-------------------------|-----------------------------------|--------------|

                           let ring
e|-10------7------3-----|------------------------------------------------------|
B|----0------0------0---|--7-5-------------------------------------------------|
G|------0------0------0-|--6--------------------4--2---------------------------|
D|----------------------|--7-----------------5---------------------------------|
A|----------------------|-------------0----------------------------------------|
E|----------------------|----------0-------------------------------------------|


Refrain

e|----2-----------------|-------5---------------|
B|-0--3-----------------|-----3-----------------|
G|-0--2---------2--4--0-|---2------2------------|
D|---------2------------|-4----------4-----0----|
A|-------0--------------|---------------0-----4-|
E|----------------------|-----------------------|

e|----------0------2------3---|-9--7----10-------------------------|
B|------------0------0------0-|-7----------------------------------|
G|--------0------0------0-----|-7----7-----------------------------|
D|----2-----------------------|-7----------------------7-----------|
A|----------------------------|----------------------9---9---------|
E|-0--------------------------|-----------------7-10-------10-7----|

e|----------0------2------3---|-9--7------------10/12-9------------|
B|------------0------0------0-|-7-----------------------10--7------|
G|--------0------0------0-----|-7----7------------------------9-7--|
D|----2-----------------------|-7----------------------------------|
A|----------------------------|------------------------------------|
E|-0--------------------------|------------------------------------|

e|----------0------2------3---|-9--7---------------------------9-----|
B|------------0------0------0-|-7---------------------------10---x-8-|
G|--------0------0------0-----|-7------------------9-----11----------|
D|----2-----------------------|-7-----------7-9/11---12--------------|
A|----------------------------|-----------9--------------------------|
A|-0--------------------------|------7-10----------------------------|

e|-10------7------3-----|--------------------------------------------|
B|----0------0------0---|--7-5---------------------------------------|
G|------0------0------0-|--6--------------------4--2-----------------|
D|----------------------|--7-----------------------------------------|
A|----------------------|-------------0------------------------------|
E|----------------------|----------0---------------------------------|


Refrain II

e|---2----------------|----------5-----------------------------------|
B|-0-3----------------|----------3-----------------------------------|
G|---2----------2-4-2-|-4------2-------------------------------------|
D|---------2----------|------4-----------0---------------------------|
A|------0-------------|----0----------0-----4------------------------|
E|--------------------|----------------------------------------------|

e|----------2--2--2---|-----5-----5-----5-------5--------------------|
B|----------3--3--3---|-----5-------5-----5---5---5------------------|
G|----------2--2--2---|-----6---------6-----6-------6----------------|
D|----------4--4--4---|-----7----------------------------------------|
A|-2--------2--2--2---|-----7---------------------------0------------|
E|--------------------|-----5----------------------------------------|

e|----9-------------------|------------------------------------------|
B|------7----10-----7-----|10----------------------------------------|
G|--------7-----7-----7---|------------------------------------------|
D|----------------7-----7-|------------4/6---4-----------------------|
A|------------------------|--------2-4---------7-4-------------------|
E|-7----------------------|----2-5-----------------7-5---------------|

e|----9-------------------|---------------2-------5------------------|
B|------7----10-----7-----|10-----------2---------2------------------|
G|--------7-----7-----7---|-----------2-----------2------------------|
D|----------------7-----7-|-----------------------2------------------|
A|------------------------|------2-4---------------------------------|
E|-7----------------------|----2-------------------------------------|


Refrain III

e|------------------------|------------------------------------------|
B|-7-5--------------------|------------------------------------------|
G|-6-------------0--------|-------0----------------------------------|
D|-7-----------2----------|----2-----4--2-------0--------------------|
A|-------0---4------------|-3-----------------0---4------------------|
E|-----0------------------|------------------------------------------|

e|----------0-----2------3---|-9-7---10---10-----10------------------|
B|------------0-----0------0-|-7-----7-------7------7---7------------|
G|-------0------0------0-----|-7-----7---------7------7--------------|
D|-----2---------------------|-7-----7-------------------------------|
A|---------------------------|---------------------------------------|
E|-0-------------------------|---------------------------------------|

e|----------0-----2------3---|-9-7-------10/12--9--------------------|
B|------------0-----0------0-|-7------------------10-7---------------|
G|-------0------0------0-----|-7-----------------------9-7-----------|
D|-----2---------------------|-7-------------------------------------|
A|---------------------------|---------------------------------------|
E|-0-------------------------|---------------------------------------|

e|----------0-----2------3---|-9-7--10-------------------------------|
B|------------0-----0------0-|-7----7--------------------------------|
G|-------0------0------0-----|-7----7--------------------------------|
D|-----2---------------------|-7----7------------7-------------------|
A|---------------------------|-----------------9---------------------|
E|-0-------------------------|------------7-10-----10\---------------|

e|---x--10-----7-----3-------|---------------------------------------|
B|---0-----0-----0-----0-----|-7-5-----------------------------------|
G|---4-------0-----0-----0---|-6----------6----------4-2-------------|
D|---x-----------------------|-7-------------------------------------|
A|---5-----------------------|----------0----------------------------|
E|---3-----------------------|---------------------------------------|


e|---2----------------|----------5-----------------------------------|
B|-0-3----------------|----------3-----------------------------------|
G|---2----------2-4-2-|-4------2-------------------------------------|
D|---------2----------|------4-----------0---------------------------|
A|------0-------------|----0----------0-----4------------------------|
E|--------------------|----------------------------------------------|

Intro/Verse Part (again palm muted)

e|--------------------------------|------------------------------------|
B|--------------------------------|------------------------------------|
G|-------0---------0---0----------|---0-0---0-------0------------------|
D|-------------2------------2-----|-2---------2--2------------0--------|
A|------------------------------2-|-----------------------0-------4----|
E|-0-------------0------------0---|------------0-----------------------|

e|------------------------------|----------------------------------|
B|------3--------2---2----------|-----3---2-------2----------------|
G|-----------2------------2-----|---2-------2---2------------------|
D|--------------------------2---|-2-------------------------0------|
A|-2-----------2--------------2-|-------------2---------0--------4-|
E|------------------------------|----------------------------------|

e|--------------------------------|------------------------------------|
B|--------------------------------|------------------------------------|
G|-------0---------0---0----------|---0-0---0-------0------------------|
D|-------------2------------2-----|-2---------2--2------------0--------|
A|------------------------------2-|-----------------------0-------4----|
E|-0-------------0------------0---|------------0-----------------------|

e|------------------------------|----------------------------------|
B|------3--------2---2----------|-----3---2-------2----------------|
G|-----------2------------2-----|---2-------2---2------------------|
D|--------------------------2---|-2-------------------------0------|
A|-2-----------2--------------2-|-------------2---------0--------4-|
E|------------------------------|----------------------------------|

e|--------------------------------|------------------------------------|
B|--------------------------------|------------------------------------|
G|-------0---------0---0----------|---0-0---0-------0------------------|
D|-------------2------------2-----|-2---------2--2------------0--------|
A|------------------------------2-|-----------------------0-------4----|
E|-0-------------0------------0---|------------0-----------------------|

e|------------------------------|----------------------------------|
B|------3--------2---2----------|-----3---2-------2----------------|
G|-----------2------------2-----|---2-------2---2------------------|
D|--------------------------2---|-2-------------------------0------|
A|-2-----------2--------------2-|-------------2---------0--------4-|
E|------------------------------|----------------------------------|

e|--------------------------------|------------------------------------|
B|--------------------------------|------------------------------------|
G|-------0---------0---0----------|---0-0---0-------0------------------|
D|-------------2------------2-----|-2---------2--2------------0--------|
A|------------------------------2-|-----------------------0-------4----|
E|-0-------------0------------0---|------------0-----------------------|

e|------------------------------|----------------------------------|
B|------3--------2---2----------|-----3---2-------2----------------|
G|-----------2------------2-----|---2-------2---2------------------|
D|--------------------------2---|-2-------------------------0------|
A|-2-----------2--------------2-|-------------2---------0--------4-|
E|------------------------------|----------------------------------|

from here on it's a bit different, but in the same rhythm

e|------------------------------|----------------------------------|
B|-----8-----------8-8----------|---8-8---8--------8---------------|
G|----------7-----------7-------|-7---------7----------------------|
D|--------------7-----------7---|---------------7-----------0------|
A|-7----------7-----------7-----|-------------7---------0--------4-|
E|------------------------------|----------------------------------|

e|----7--x-x-7--7---7---x-7--7--|--7--x-7---7---7------------------|
B|----7--x-x-7--7---7---x-7--7--|--7--x-7---7---7------------------|
G|----x--x-x-x--x---x---x-x--x--|--x--x-x---x---x------------------|
D|----11-x-x-11-x---x---x-11-x--|--x--x-11--x---x-----------0------|
A|----9--x-x-9--9---9---x-9--9--|--9--x-9---9---9------0---------4-|
E|-7--7--x-x-7--7---7---x-7--7--|--7--x-7---7---7------------------|

e|------------------------------|----------------------------------|
B|-----8-----------8-8----------|---8-8---8--------8---------------|
G|----------7-----------7-------|-7---------7----------------------|
D|--------------7-----------7---|---------------7-----------0------|
A|-7----------7-----------7-----|-------------7---------0--------4-|
E|------------------------------|----------------------------------|

e|----7--x-x-7--7---7---x-7--7--|--7--x-7--x-x-x---7------<7>------|
B|----7--x-x-7--7---7---x-7--7--|--7--x-7--x-x-x---7------<7>------|
G|----x--x-x-x--x---x---x-x--x--|--x--x-x--x-x-x---x------<7>------|
D|----11-x-x-11-x---x---x-11-x--|--x--x-11-x-x-x---1------<7>------|
A|----9--x-x-9--9---9---x-9--9--|--9--x-9--x-x-x---9------<7>------|
E|-7--7--x-x-7--7---7---x-7--7--|--7--x-7--x-x-x---7------<7>------|

again Intro/Verse part

e|--------------------------------|------------------------------------|
B|--------------------------------|------------------------------------|
G|-------0---------0---0----------|---0-0---0-------0------------------|
D|-------------2------------2-----|-2---------2--2------------0--------|
A|------------------------------2-|-----------------------0-------4----|
E|-0-------------0------------0---|------------0-----------------------|

e|------------------------------|----------------------------------|
B|------3--------2---2----------|-----3---2-------2----------------|
G|-----------2------------2-----|---2-------2---2------------------|
D|--------------------------2---|-2-------------------------0------|
A|-2-----------2--------------2-|-------------2---------0--------4-|
E|------------------------------|----------------------------------|

e|--------------------------------|------------------------------------|
B|--------------------------------|------------------------------------|
G|-------0---------0---0----------|---0-0---0-------0------------------|
D|-------------2------------2-----|-2---------2--2------------0--------|
A|------------------------------2-|-----------------------0-------4----|
E|-0-------------0------------0---|------------0-----------------------|

e|------------------------------|----------------------------------|
B|------3--------2---2----------|-----3---2-------2----------------|
G|-----------2------------2-----|---2-------2---2------------------|
D|--------------------------2---|-2-------------------------0------|
A|-2-----------2--------------2-|-------------2---------0--------4-|
E|------------------------------|----------------------------------|

let ring now

e|----------0------2------3---|-9--7----10-------------------------|
B|------------0------0------0-|-7----------------------------------|
G|--------0------0------0-----|-7----7-----------------------------|
D|-----2----------------------|-7----------------------7-----------|
A|----------------------------|----------------------9---9---------|
E|-0--------------------------|-----------------7-10-------10-7----|

e|---------0------2------3---|-9-7----------------------------------------------|
B|-----------0------0------0-|-7------------------------------------------------|
G|-------0------0------0-----|-7----9/11--9-7-6---------------------------------|
D|-----2---------------------|-7----------------7-------------------------------|
A|---------------------------|--------------------9-7---------------------------|
E|-0-------------------------|------------------------10------------------------|

e|----------0------2------3---|-9--7----10-------------------------|
B|------------0------0------0-|-7----------------------------------|
G|--------0------0------0-----|-7----7-----------------------------|
D|-----2----------------------|-7----------------------7-----------|
A|----------------------------|----------------------9-------------|
E|-0--------------------------|-----------------7-10------10\------|

e|-x--14-----10-----7--------|-12----9-----5-----------------------|
B|-0-----0------0------------|----0----0-----0---------------------|
G|-4-------0------0----------|------0----0-----0-------------------|
D|-x-------------------2-0---|-------------------------------------|
A|-5-----------------4-------|----------------------0--------------|
E|-3-------------------------|-------------------------------------|

e|-------7-----7---------------------------------------------------|
B|------7-------7--------------------------------------------------|
G|-----8---------8-------------------------------------------------|
D|---11-----------11-----------------------------------------------|
A|--9---------------9----------------------------------------------|
E|-7-----------------7---------------------------------------------|


************************************

| /   slide up
| \   slide down
| h   hammer-on
| p   pull-off
| ~   vibrato
| <>  harmonic
| x   Mute note
| b   Bend
| pb  Pre-bend
| br  Bend release
| pbr Pre-bend release
| brb Bend release bend

************************************

I finally did it :D
I hope you enjoy!

As always, post your comments and corrections, I am thankful for improvements on my tabs!
Добавлено: 14.06.2015
Другие материалы по этой песне:

Страница создана 14.06.2015
http://primanota.ru/al-di-meola/and-i-love-her-chords.htm
Привет, Гость.
Предлагаем пройти революционный курс по гитаре.
Подарок от PrimaNota.Ru, забирай!