PrimaNota.ru - самый крупный в мире бесплатный архив песенных текстов, аккордов, табулатур и нот


Against The Current - See You Again - таба, видео

Регистрация Запомнить меня
Войти через:  Facebook Google Twitter Vk Yandex Mail.ru

Against The Current - See You Again - таба, видео

Печатать
Просмотров: 210
-------------------------------------------------------------------------------
                             See You Again - Against The Current
-------------------------------------------------------------------------------
E-mail: pieces258888@gmail.com

You can see how I play this here: https://www.youtube.com/watch?v=OYgnEySkeCw

Tuning: Standart

                              INTRO
e|--10-8-------12--------     --10-8----------------------------------------------|
B|-8----8----15--15-13---     -8----8~--------------------------------------------|
G|---------12------------ x3  ----------------------------------------------------|
D|-----------------------     ----------------------------------------------------|
A|-----------------------     ----------------------------------------------------|
E|-----------------------     ----------------------------------------------------|

e|--10-8-------10-8---------12--12--12----------------------12------    --------------|
B|-8----8~-8--8----8~-8-8-15--15--15--15--15-15----13~----15--15-13-    -15-15----13~-|
G|----------------------------------------------14------12---------- х2 -------14-----|
D|------------------------------------------------------------------    --------------|
A|------------------------------------------------------------------    --------------|
E|------------------------------------------------------------------    --------------|

                         Sound at backround
e|---------------------------------------------------------------------------|
B|---------------------------------------------------------------------------|
G|---------------------------------------------------------------------------|
D|--9/10--10-10--2-2-2-2-2--7-7-7--2-2-2-2-2---------------------------------|
A|-10-----10-10--3-3-3-3-3--8-8-8--3-3-3-3-3---------------------------------|
E|---------------------------------------------------------------------------|


                               VERSE1(I use bass riff)
e|---------------------------------------------------------------------------|
B|---------------------------------------------------------------------------|
G|----5--------5-------------------------------------------------------------|
D|-7-----5--3-----5----------------------------------------------------------|
A|----3--------3-------------------------------------------------------------|
E|-5-----3--1-----3----------------------------------------------------------|
PM*
                               CHORUS
e|---------------------------------------------------------------------------|
B|---------------------------------------------------------------------------|
G|---------------------------------------------------------------------------|
D|-7--10--5--3--10--5-------------10-----------------------------------------|
A|---------------------------------------------------------------------------|
E|-5--8---3--1--8---3-------------8------------------------------------------|
                             (End of chorus)

                               VERSE2
e|---------------------------------------------------------------------------|
B|---------------------------------------------------------------------------|
G|----5--------5-------------------------------------------------------------|
D|-7-----5--3-----5----------------------------------------------------------|
A|----3--------3-------------------------------------------------------------|
E|-5-----3--1-----3----------------------------------------------------------|
PM*
                               BRIDGE
e|---------------------------------------------------------------------------|
B|---------------------------------------------------------------------------|
G|-2--5--4--------7--5---9--7--5--4--2~--------------------------------------|
D|-3--5--5--(x2)--7--5---------------3~--------------------------------------|
A|-3--3--5--------5--3---7--5--3--2--3~--------------------------------------|
E|-1-----3---------------------------1~--------------------------------------|
                        (with slide down)

                               CHORUS(OUTRO)
e|---------------------------------------------------------------------------|
B|---------------------------------------------------------------------------|
G|---------------------------------------------------------------------------|
D|-7--10--5--3--10--5-------------10-----------------------------------------|
A|---------------------------------------------------------------------------|
E|-5--8---3--1--8---3-------------8------------------------------------------|
                             (End of chorus)


                                 
Dan play in verses this riff. But I prefer bass riff
e|---------------------------------------------------------------------------|
B|---------------------------------------------------------------------------|
G|---------------------------------------------------------------------------|
D|--9/10--10-10--2-2-2-2-2--7-7-7--2-2-2-2-2---------------------------------|
A|-10-----10-10--3-3-3-3-3--8-8-8--3-3-3-3-3---------------------------------|
E|---------------------------------------------------------------------------|




************************************

| /   slide up
| \   slide down
| h   hammer-on
| p   pull-off
| ~   vibrato
| +   harmonic
| x   Mute note
| b   Bend
| pb  Pre-bend
| br  Bend release
| pbr Pre-bend release
| brb Bend release bend

************************************
Добавлено: 12.09.2015
Другие материалы по этой песне:
  • Аккорды и текст

Страница создана 12.09.2015
http://primanota.ru/against-the-current/see-you-again-chords.htm
Привет, Гость.
Предлагаем пройти революционный курс по гитаре.
Подарок от PrimaNota.Ru, забирай!