PrimaNota.ru - самый крупный в мире бесплатный архив песенных текстов, аккордов, табулатур и нот


Against The Current - Roses - аккорды и текст, бас-таба, видео

Регистрация Запомнить меня
Войти через:  Facebook Google Twitter Vk Yandex Mail.ru

Against The Current - Roses - аккорды и текст, бас-таба, видео

Печатать
Просмотров: 45
Уроки эстрадного вокала в Санкт-Петербурге
Roses
Against The Current
Roses - Against the Current

[Intro]

e|-10-10-10--10-9------7-9---10-10-10--10-9---------------|
B|----------------10------------------------10------10----|
G|-------------------9-------------------------9-11-------|
D|--------------------------------------------------------| x2
A|--------------------------------------------------------|
E|--------------------------------------------------------|

[Verse 1]       

A           E                     D
Waited all night for you to come home
A         E             D
I always hated sleeping alone
             A             E
Watching the roses wither away
            A                          D
Wishing my memories would die out the same
A             E                     D
I waited all night, yeah, you never came


[Chorus]

            A                     E
I miss the long nights under street lights
         F#m                  D
When our hearts were made of gold
            A               E
I miss the feeling that we had then
         F#m          D 
We were never growing old
                A
Yeah, I miss it all
      E      F#m        D
Whoa oh, whoa oh, whoa oh
                A
Yeah, I miss it all
      E      F#m        D
Whoa oh, whoa oh, whoa oh


[Verse 2]

A          E                      D
Everyone's trying to help me move on
A                 E                D
They say it gets better in the long run
                         A                 E
You could say that I've had a couple good days
              A                        D
But nobody's eyes shine quite the same way
A                E                    D
I waited all night, yeah, you never came


[Chorus]

            A                     E
I miss the long nights under street lights
         F#m                  D
When our hearts were made of gold
            A               E
I miss the feeling that we had then
         F#m          D 
We were never growing old
                A
Yeah, I miss it all
      E      F#m        D
Whoa oh, whoa oh, whoa oh
                A
Yeah, I miss it all
      E      F#m        D
Whoa oh, whoa oh, whoa oh


[Riff]

e|-10-10-10--10-9------7-9---10-10-10--10-9---------------|
B|----------------10------------------------10------10----|
G|-------------------9-------------------------9-11-------|
D|--------------------------------------------------------| x2
A|--------------------------------------------------------|
E|--------------------------------------------------------|

[Verse 3]

A           E                    D
Waited all night for you to come home
A         E              D
I always hated sleeping alone
                 A                      E
I hope that the lipstick I left on your face
                   A                    D
Stays red like the roses I laid on your grave


[Chorus]

            A                     E
I miss the long nights under street lights
         F#m                  D
When our hearts were made of gold
            A               E
I miss the feeling that we had then
         F#m          D 
We were never growing old
                A
Yeah, I miss it all
      E      F#m        D
Whoa oh, whoa oh, whoa oh
                A
Yeah, I miss it all
      E      F#m        D
Whoa oh, whoa oh, whoa oh


[Outro]

e|-10-10-10--10-9------7-9---10-10-10--10-9---------------|
B|----------------10------------------------10------10----|
G|-------------------9-------------------------9-11-------|
D|--------------------------------------------------------| x2
A|--------------------------------------------------------|
E|--------------------------------------------------------|
Добавлено: 24.10.2017
Другие материалы по этой песне:
  • Аккорды и текст

Страница создана 17.10.2017
http://primanota.ru/against-the-current/roses-chords.htm
Привет, Гость.
Предлагаем пройти революционный курс по гитаре.
Подарок от PrimaNota.Ru, забирай!