PrimaNota.ru - самый крупный в мире бесплатный архив песенных текстов, аккордов, табулатур и нот


Against The Current - The Beginning - таба, видео

Регистрация Запомнить меня
Войти через:  Facebook Google Twitter Vk Yandex Mail.ru

Against The Current - The Beginning - таба, видео

Печатать
Просмотров: 195
Авторы музыки: 森田貴寛
Авторы текста: 森田貴寛
-------------------------------------------------------------------------------
                             Against The Current - The Beginning
-------------------------------------------------------------------------------
E-mail: pieces258888@gmail.com

Tuning: Standart

                                   Verse(Intro)
e|---------------------------------------------------------------------------|
B|---------------------------------------------------------------------------|
G|---------------------------------------------------------------------------| x2
D|---------------------------------------------------------------------------|
A|----------------6----------------------------------------------------------|
E|--8------4-------------6---------------------------------------------------|
PM* *      *      *      *
                                     Intro
e|---------------------------------------------------------------------------------------|
B|---------------------------------------------------------------------------------------|
G|-6/8-8-8/10-10-10\8-8-8/10-10-10/8-8-8-8---10/12-12-12/13-13-13\10-10-10-10-10--8/10\8-|
D|---------------------------------------------------------------------------------------| x2
A|-4/6-6-6/8---8--8\6-6-6/8---8--8/6-6-6-6----8/10-10-10/11-11-11\8---8--8--8--8--6/-8\6-|
E|---------------------------------------------------------------------------------------|

e|---------------------------------------------------------------------------|
B|---------------------------------------------------------------------------|
G|--------------------------------8------7------12------10-------------------|
D|--8------10------12------10------(x8)---(x8)----(x4)----(x4)---------------|
A|-8-8--8-8--8--8-8--8--8-8--8----6------5------10-------8-------------------|
E|---------------------------------------------------------------------------|

                                    Verse1
e|--------------------------------------------------------------------------------------|
B|--------------------------------------------------------------------------------------|
G|----------------------------------------------------------8---------------------------| 
D|-----------------------------------10----------6----------8(x5)------8----------9-----|
A|----------------6------------------10(x5)------6(x5)--6-6------------8(x2)------9(x3)-|
E|--8------4-------------6-------8-8---------4-4-------------------6-6--------7-7-------|
PM* *      *      *      *

                                   Pre-Chorus
e|---------------------------------------------------------------------------|
B|-13(x10)-16(x4)--13(x10)-11(x4)--13(x10)-16(x4)----------------------------|
G|-------------------------------------------------12(x8)-15(x8)-------------|
D|---------------------------------------------------------------------------|
A|---------------------------------------------------------------------------|
E|---------------------------------------------------------------------------|

                                    Chorus
e|---------------------------------------------------------------------------|
B|---------------------------------------------------------------------------|
G|-----13--8-------------8---------------------------------------------------|
D|-10--13--8--8---10--6--8--8------------------------------------------------|
A|-10--11--6--8---10--6--6--8------------------------------------------------|
E|-8----------6---8---4-----6------------------------------------------------|

                                     Intro

                                     
                                     Verse2
e|---------------------------------------------------------------------------|
B|-----11-------11-------11-------11-------11-------11-------11-------11-----|
G|---12--12---12--12---12--12---12--12---12--12---12--12---10--10---10--10---|
D|---------------------------------------------------------------------------| x2
A|-10-------10---------------------------------------------------------------|
E|-------------------11-------11-------11-------11-------10-------10---------|
                           
                           Sounds at  backround in verse2
e|--------------------------------------------------------------------------------------|
B|--------------------------------------------------------------------------------------|
G|----------------------------------------------------------8---------------------------| 
D|-----------------------------------10----------6----------8(x5)------8----------9-----|
A|----------------6------------------10(x5)------6(x5)--6-6------------8(x2)------9(x3)-|
E|--8------4-------------6-------8-8---------4-4-------------------6-6--------7-7-------|
PM* *      *      *      *

                                   Pre-chorus
                                     Chorus


                                    Bridge(same chorus)
e|---------------------------------------------------------------------------|
B|---------------------------------------------------------------------------|
G|--------8------------------------------------------------------------------|
D|-10--6--8--8--9------------------------------------------------------------| x2
A|-10--6--6--8--9------------------------------------------------------------|
E|-8---4-----6--7------------------------------------------------------------|

                                   Solo
e|---------------------------------------------------------------------------|
B|-9-8--12b(x3)---7------9-8--12b(x3)--8h10p8~-------------------------------|
G|-----------------(x4)------------------------------------------------------|
D|----------------4----------------------------------------------------------|
A|---------------------------------------------------------------------------|
E|---------------------------------------------------------------------------|

                                   Verse
e|---------------------------------------------------------------------------|
B|---------------------------------------------------------------------------|
G|---------------------------------------------------------------------------| x2
D|---------------------------------------------------------------------------|
A|----------------6----------------------------------------------------------|
E|--8------4-------------6---------------------------------------------------|
PM* *      *      *      *

                                  Chorus


                                  Outro
e|---------------------------------------------------------------------------|
B|---------------------------------------------------------------------------|
G|-------8------------8------------------------------------------------------|
D|-6--8--8--10--6--8--8--6~--------------------------------------------------|
A|-6--8--6--10--6--8--6--6~--------------------------------------------------|
E|-4--6-----8---4--6-----4~--------------------------------------------------|



************************************

| /   slide up
| \   slide down
| h   hammer-on
| p   pull-off
| ~   vibrato
| +   harmonic
| x   Mute note
| b   Bend
| pb  Pre-bend
| br  Bend release
| pbr Pre-bend release
| brb Bend release bend

************************************
Добавлено: 12.09.2015
Вам также может быть интересно:
Другие материалы по этой песне:

Страница создана 12.09.2015
http://primanota.ru/against-the-current/beginning-chords.htm
Привет, Гость.
Предлагаем пройти революционный курс по гитаре.
Подарок от PrimaNota.Ru, забирай!