PrimaNota.ru - самый крупный в мире бесплатный архив песенных текстов, аккордов, табулатур и нот


AFI - The Living Song - таба, видео

Регистрация Запомнить меня
Войти через:  Facebook Google Twitter Vk Yandex Mail.ru

AFI - The Living Song - таба, видео

Печатать
Просмотров: 153

|-----14-13-----13----------18----|
|-----------14----14----14--------|
|--------------------15-----------|x3
|-13------------------------------|
|---------------------------------|
|---------------------------------|

|-----14-13-----13---------16-18----14-|
|-----------14----14----14-------14----|
|--------------------15----------------|
|-13-----------------------------------|
|--------------------------------------|
|--------------------------------------|

|-16---13-14-13--------11-------|
|-------------------------------|
|-------------------------------|
|-------------------------------|
|-------------------------------|
|-------------------------------|

|------------------------------------------|
|------------------------------------------|
|------------------------------------------|
|-4---3---1---1-1-1------4---3---1---1-1-1-|
|------------------------------------------|
|---0---0-----------0-0----0---0-----------|

|-------------------------------------|
|-------------------------------------|
|-------------------------------------|
|-----4---6/8------------------6-6-6--|
|--------------6--6-6-6---6-6--4-6-6--|
|-0-0---0------0--0-0-0---0-0--0-0-0--|

|----------------------|
|----------------------|
|----------------------|
|-4---6-6---11---11-11-|
|-6h6-6-6---9h11-11-11-|
|-0---0-0---0----0--0--|

|------------------------------------------|
|------------------------------------------|
|------------------------------------------|
|-4---3---1---1-1-1------4---3---1---1-1-1-|
|------------------------------------------|
|---0---0-----------0-0----0---0-----------|

|-------------------------------------|
|-------------------------------------|
|-------------------------------------|
|-----4---6/8------------------6-6-6--|
|--------------6--6-6-6---6-6--4-6-6--|
|-0-0---0------0--0-0-0---0-0--0-0-0--|
Добавлено: 06.06.2012
Другие материалы по этой песне:
  • Аккорды и текст

Страница создана 06.06.2012
http://primanota.ru/afi/the-living-song-chords.htm
Привет, Гость.
Предлагаем пройти революционный курс по гитаре.
Подарок от PrimaNota.Ru, забирай!