PrimaNota.ru - самый крупный в мире бесплатный архив песенных текстов, аккордов, табулатур и нот


AFI - Theory Of Revolution - текст песни, таба, видео

Регистрация Запомнить меня
Войти через:  Facebook Google Twitter Vk Yandex Mail.ru

AFI - Theory Of Revolution - текст песни, таба, видео

Печатать
Просмотров: 139
Submitted By: Sqweeky
EMail: Blindside831@aol.com


Intro:
e-|------------------------------------------------------|
B-|------------------------------------------------------|
G-|------------------------------------------------------|
D-|-7-7-7-7-7-7-7-7-3-------------7-7--7-7-3-3-3-5-5-5-5-|
a-|-5-5-5-5-5-5-5-5-1-3-3-5-5-5-5-5-5--5-5-1-1-1-3-3-3-3-|
E-|-------------------1-1-3-3-3-3------------------------|

Verse:
e-|-------------------------------------------------------------|
B-|-------------------------------------------------------------|
G-|-------------------------------------------------------------|
D-|-7-7-7-7-7-7-7-7-3-------------7-7-7-7-7-7-7-7-3-----5-5-5-5-|
A-|-5-5-5-5-5-5-5-5-1-3-3-5-5-5-5-5-5-5-5-5-5-5-5-1-5-5-3-3-3-3-|
E-|-------------------1-1-3-3-3-3-------------------3-3---------|

Chorus:
e-|-------------------------------------------------------------------------
B-|-------------------------------------------------------------------------
G-|-------------------------------------------------------------------------
D-|-7-7-7-7-7-7-7-7-10-9-7-5-5-5-5-7-7-7-7-7-7-7-7-10-10-10-10-12-12-12-12--
A-|-5-5-5-5-5-5-5-5--8-7-5-3-3-3-3-5-5-5-5-5-5-5-5--8--8--8--8-10-10-10-10--
E-|-------------------------------------------------------------------------

e-|----------------------------------------------------------------|
B-|----------------------------------------------------------------|
G-|----------------------------------------------------------------|
D-|-7-7-7-7-7-7-7-7-10-9-7-5-5-5-5-7-7-7-7-7-7-7-7-5-5-5-5-7-7-7-7-|
A-|-5-5-5-5-5-5-5-5--8-7-5-3-3-3-3-5-5-5-5-5-5-5-5-3-3-3-3-5-5-5-5-|
E-|----------------------------------------------------------------|

Bridge:palm mute the chords
e-|-------------------------------------------------------------------------
B-|-------------------------------------------------------------------------
G-|-------------------------------------------------------------------------
D-|-7-7-7-7-7-7-7-7-3-3-3-3-5-5-5-5-7-7-7-7-7-7-7-7-3-3-3-3-5-5-5-5-7-7-7-7-
A-|-5-5-----5-5-----1-1-----3-3-----5-5-----5-5-----1-1-----3-3-----5-5-----
E-|-------------------------------------------------------------------------

e-|---------------------------------------------------------
B-|---------------------------------------------------------
G-|---------------------------------------------------------
D-|-7-7-7-7-3-3-3-3-5-5-5-5-7-7-7-7-7-7-7-7-7-7-7-7-7-7-7-7-
A-|-5-5-----1-1-----3-3-----5-5-----5-5-5-5-5-5-5-5-5-5-5-5-
E-|---------------------------------------------------------

e-|---------------------------------------------------------|
B-|---------------------------------------------------------|
G-|---------------------------------------------------------|
D-|-7-x-x-7-7-7-7-7-3-3-3-3-5-3-7-x-x-7-7-7-7-7-3-3-3-3-5-3-|
A-|-5-x-x-5-5-5-5-5-1-1-1-1-3-1-5-x-x-5-5-5-5-5-1-1-1-1-3-1-|
E-|---------------------------------------------------------|
Добавлено: 24.02.2012
Другие материалы по этой песне:
  • Аккорды и текст

Страница создана 24.02.2012
http://primanota.ru/afi/theory-of-revolution-chords.htm
Привет, Гость.
Предлагаем пройти революционный курс по гитаре.
Подарок от PrimaNota.Ru, забирай!