PrimaNota.ru - самый крупный в мире бесплатный архив песенных текстов, аккордов, табулатур и нот


AFI - The Lost Souls - аккорды и текст, таба, бас-таба, видео

Регистрация Запомнить меня
Войти через:  Facebook Google Twitter Vk Yandex Mail.ru

AFI - The Lost Souls - аккорды и текст, таба, бас-таба, видео

Печатать
Просмотров: 306
Уроки эстрадного вокала в Санкт-Петербурге
Авторы музыки: AFI
Авторы текста: Davey Havok
The Lost Souls
AFI
Title: The Lost Souls
Artist: AFI
Album: The Art of Drowning
Label: Nitro Records 2000
Tabbed by: Bryson Wolf
sackman234@hotmail.com


Intro

e|----------------------------------------------
B|----------5--------------------------------5--
G|--5-4-7-5-----5-4-7----------------5-4-7-5----
D|7-----------7-------(5)(5)(5)(5)-7------------
A|--------------------(5)(5)(5)(5)--------------
E|--------------------(3)(3)(3)(3)--------------
		   p.m------------


e|----------------------------------------------
B|----------------------------------------------
G|----------------------------------------------
D|----------------------------------------------
A|----------------------------------------------
E|----------------------------------------------
   P.S.---------------------------------|

Part 1
e|---------------------------------------------------
B|---------------------------------------------------
G|7--10----------------------------------------------
D|7--10--10--12------8-8--8---8-8-8---7-7--7---7-7-7-   X3
A|5--8---10--12------8-8--8---8-8-8---7-7--7---7-7-7-
E|-------8---10------6-6--6---6-6-6---5-5--5---5-5-5-

Part 2
e|----------------------------------------------
B|----------------------------------------------
G|7--10-----------------------------5-----------
D|7--10--10--12-----8---------------5-----------
A|5--8---10--12-----8---------------3-----------
E|-------8---10-----6---------------------------
		    break---------| repeatidly

Part 3
This part add your own fast strums and palm mutets to make it sound good
e|----------------------------------------------
B|----------------------------------------------
G|7---------------------------------------------
D|7------10-------8------3------(3)-------------  X2
A|5------10-------8------3------(3)-------------
E|-------8--------6------1------(1)-------------
				(first time only)
Part 4
again for the power chord strum fast to make it sound good
e|----------------------------------------------
B|----------------------------------------------
G|----7-----10----12-----14---------------------
D|5---X-----X-----X------X----------------------
A|5---5-----8-----10-----12---------------------
E|3----------------------------------------------


Part 1 one time
Part 2 one time
Part 3 two times

e|----------------------------------------------
B|----------------------------------------------
G|---7---------------7/14-----------------------
D|5--X---------------x--------------------------
A|5--5---------------5/7------------------------
E|3---------------------------------------------
     let ring-------|

Solo (not exact but will do)
e|----------13---13---12---12---13-----------------
B|----10/13---10---10---10---10---10--13---10---13-
G|9h10---------------------------------------------
D|-------------------------------------------------
A|-------------------------------------------------
E|-------------------------------------------------

e|---10----10-----10--12-13---13---12---12---13----
B|10----11-----11----------10---10---10---10-------
G|-------------------------------------------------
D|-------------------------------------------------
A|-------------------------------------------------
E|-------------------------------------------------

e|----------------------------12-12-12----12-13----
B|10---13---10---13---10--11--10-10-10h11-11-11----
G|-------------------------------------------------
D|-------------------------------------------------
A|-------------------------------------------------
E|-------------------------------------------------

Part 5
e|-----------------------------------------------------
B|-----------------------------------------------------
G|-7-7--7-7--10-10--12--14--14-------------------------
D|-X-X--X-X--X--X---X---X---X---7--7-7/8--8---8-8-8-8-- x2
A|-5-5--7-7--8--8---10--12--12--7--7-7/8--8---8-8-8-8--
E|------------------------------5--5-5/6--6---6-6-6-6--

Part 6
e|-----------------------------------------------------
B|-----------------------------------------------------
G|--7-7--7-7--7-7--7-7---7--7--14-14--14-14--14-14-----
D|--7-7--7-7--7-7--7-7---7--7--14-14--14-14--14-14-----
A|--5-5--5-5--5-5--5-5---5--5--12-12--12-12--12-12-----
E|-----------------------------------------------------

Part 3 two times

End on fast strums with palm mutes here and there of
e|---
B|---
G|-7-
D|-7-
A|-5-
E|---

Questions? Comments?
Email me at sackman234@hotmail.com
     
Добавлено: 22.07.2013
Другие материалы по этой песне:

Страница создана 18.03.2012
http://primanota.ru/afi/the-lost-souls-chords.htm
Привет, Гость.
Предлагаем пройти революционный курс по гитаре.
Подарок от PrimaNota.Ru, забирай!