PrimaNota.ru - самый крупный в мире бесплатный архив песенных текстов, аккордов, табулатур и нот


AFI - Okay I Feel Better Now - текст песни, таба, видео

Регистрация Запомнить меня
Войти через:  Facebook Google Twitter Vk Yandex Mail.ru

AFI - Okay I Feel Better Now - текст песни, таба, видео

Печатать
Просмотров: 184
Авторы: David Marchand, Adam Carson, Hunter Burgan, Jade Puget

A Fire Inside,
Okay, I Feel Better Now!



|---0000000000000000----------1111-------|
|:--1111111111111111-00000000-1111-0000-:|
|--------------------00000000------0000--|
|----------------------------------------|
|:--------------------------------------:|
|----------------------------------------|



|------------------------------------|
|:-10-10-10-10-10-10-10-------666---:|
|---9--9--9--9--9--9--9----55-555----|
|---7--7--7--7--7--7--7--3333-3330---|
|:----------------------------------:|
|------------------------------------|



--------------------------------------------------|
-----1---1---1---0---0---0---6---6---6---99999999-|
---2---2---2---0---0---0---7---7---7---0-xxxxxxxx-|
-----------------------------------------66666666-|
--------------------------------------------------|
--------------------------------------------------|


GUITAR ONE
|---0000000000000000----------1111-------|
|:--1111111111111111-00000000-1111-0000-:|
|--------------------00000000------0000--|
|----------------------------------------|
|:--------------------------------------:|
|----------------------------------------|
|                                        |
|                                        |
|GUITAR TWO                              |
|----------7-----------------------------|
|:-----10----10--------------------------|
|---99----------9------------------------|
|----------------------------------------|
|:---------------------------------------|
|----------------------------------------|


|-----------------------------------|
|:-10-10-10-10-10-10-10--6666666---:|
|---9--9--9--9--9--9--9--5555555----|
|---7--7--7--7--7--7--7--3333333-0--|
|:--0--0--0--0--0--0--0------------:|
|-----------------------------------|



--------------------------------------------------|
-----1---1---1---0---0---0---6---6---6---99999999-|
---2---2---2---0---0---0---7---7---7---0-xxxxxxxx-|
-----------------------------------------66666666-|
--------------------------------------------------|
--------------------------------------------------|


CHORUS
-------------------------------------------------------------------|
------------------------------------------------------------6---5--|
------555--------7^7------------55---------------555----------7----|
----------------------------777-----33333333-----------------------|
--333----33--555-----55-000---------XXXXXXXX--333---333-555--------|
------------------------------------11111111-----------------------|


CHORUS
--------------12-12-12-12-12-12-12---------------------------------|
--------------12-12-12-12-12-12-12---------------------------------|
---------------9--9--9--9--9--9--9--10-10-10-10-10-10-10-----------|
-777-999-10-x--9--9--9--9--9--9--9--10-10-10-10-10-10-10--5--------|
-xxx-xxx--x-x------------------------8--8--8--7--7--7--8--X--------|
-555-777--8-x---------------------------------------------3--------|


CHORUS OUTRO
------------------------------------|
-8/10---10--8------------------/5-3-|
-7/-9----9--7-7---9---5^7--7-5--0-0-|
--------------9--10---7----7-7------|
------------------------------------|
------------------------------------|



GUITAR ONE
|---0000000000000000----------1111-------|
|:--1111111111111111-00000000-1111-0000-:|
|--------------------00000000------0000--|
|----------------------------------------|
|:--------------------------------------:|
|----------------------------------------|
|
|
|GUITAR TWO
|---------7^8^7----0------0----------------1111--------|
|:-------------------3------3----0-----0---1111-0000--:|
|---9--9---------5------5------00-0-00---0------0000---|
|--10-10-----------------------------------------------|
|:----------------------------------------------------:|
|------------------------------------------------------|


|-----------------------------------|
|:-10-10-10-10-10-10-10--6666666---:|
|---9--9--9--9--9--9--9--5555555----|
|---7--7--7--7--7--7--7--3333333-0--|
|:--0--0--0--0--0--0--0------------:|
|-----------------------------------|



--------------------------------------------------|
-----1---1---1---0---0---0---6---6---6---99999999-|
---2---2---2---0---0---0---7---7---7---0-xxxxxxxx-|
-----------------------------------------66666666-|
--------------------------------------------------|
--------------------------------------------------|



CHORUS
-------------------------------------------------------------------|
------------------------------------------------------------6---5--|
------555--------7^7------------55---------------555----------7----|
----------------------------777-----33333333-----------------------|
--333----33--555-----55-000---------XXXXXXXX--333---333-555--------|
------------------------------------11111111-----------------------|


CHORUS
-------------12-12-12-12-12-12-12---------------------------------|
-------------12-12-12-12-12-12-12---------------------------------|
--------------9--9--9--9--9--9--9--10-10-10-10-10-10-10--12-------|
-777-999-10-x-9--9--9--9--9--9--9--10-10-10-10-10-10-10--12-------|
-xxx-xxx--x-x-----------------------8--8--8--7--7--7--8--10-------|
-555-777--8-x-----------------------------------------------------|


BRIDGE
----12-----12-----12-----12-----12-----12----12-----12-----12---|
------13-----13------------13-----13-----------13-----13--------|
-14-----14-----14-----13-----13-----13----12-----12-----12------|
----------------------------------------------------------------|
----------------------------------------------------------------|
----------------------------------------------------------------|

BRIDGE
----12-------12-----12-----8-------8-------------10-----10-----10---|
-------13------13------------10------10----10------12-----12--------|
-11-------11-----11-----10------10------10----12-----12-----12------|
--------------------------------------------------------------------|
--------------------------------------------------------------------|
--------------------------------------------------------------------|

BRIDGE
----12-----12-----12----10-----10-----10--|
------13-----13-----------12-----12-------|
-14-----14-----14----12-----12-----12-----|
------------------------------------------|
------------------------------------------|
------------------------------------------|

BRIDGE
----12-----12-----12-----12-----12-----12----12-----12-----12---|
------13-----13------------13-----13-----------13-----13--------|
-14-----14-----14-----13-----13-----13----12-----12-----12------|
----------------------------------------------------------------|
----------------------------------------------------------------|
----------------------------------------------------------------|

BRIDGE
----12-------12-----12-----8-------8-------------10-----10-----10---|
-------13------13------------10------10----10------12-----12--------|
-11-------11-----11-----10------10------10----12-----12-----12------|
--------------------------------------------------------------------|
--------------------------------------------------------------------|
--------------------------------------------------------------------|

BRIDGE
----12-----12-----12-10-------------------|
------13-----13------12-------------------|
-14-----14-----14----12-------------------|
------------------------------------------|
------------------------------------------|
------------------------------------------|


CHORUS, Guitar One
-------------------------------------------------------------------|
------------------------------------------------------------6---5--|
------555--------7^7------------55---------------555----------7----|
----------------------------777-----33333333-----------------------|
--333----33--555-----55-000---------XXXXXXXX--333---333-555--------|
------------------------------------11111111-----------------------|


CHORUS, Guitar One
-------------12-12-12-12-12-12-12------------------------------------|
-------------12-12-12-12-12-12-12------------------------------------|
--------------9--9--9--9--9--9--9--10-10-10-10-10-10-10--12-12-12-12-|
-777-999-10-x-9--9--9--9--9--9--9--10-10-10-10-10-10-10--12-12-12-12-|
-xxx-xxx--x-x-----------------------8--8--8--7--7--7--8--10-10-10-10-|
-555-777--8-x--------------------------------------------------------|


CHORUS, Guitar One
-------------------------------------------------------------------|
-------------------------------------------------------------------|
-12-12-12-12-55555555-77777777-55555555----------55555555-77777777-|
-12-12-12-12-55555555-77777777-77777777-33333333-55555555-77777777-|
-10-10-10-10-33333333-55555555-00000000-33333333-33333333-55555555-|
----------------------------------------11111111-------------------|


CHORUS, Guitar One
---------------------------------------------------------------------|
---------------------------------------------------------------------|
55555555------------5-5-5--7-7-7--5-5-5---------555-777-555----------|
77777777-33333333---5-5-5--7-7-7--7-7-7--3-3-3--555-777-777--3-------|
00000000-33333333---3-3-3--5-5-5--0-0-0--3-3-3--333-555-000--3-------|
---------11111111------------------------1-1-1---------------1-------|


CHORUS, Guitar Two
--77777777-666-777777777777-11-11-11-77777----------666-777777-|
--xxxxxxxx-xxx-xxxxxxxxxxxx--x--x--x-xxxxx-77777777-xxx-xxxxxx-|
--55555555-444-555555555555--9--9--9-55555-00000000-444-555555-|
-------------------------------------------55555555------------|
---------------------------------------------------------------|
---------------------------------------------------------------|


CHORUS, Guitar Two
-5-55-7^55-8^55-12-12-12-12-12-12-12-12-77777777\-7--8-10-|
---55---55---55-12-12-12-12-12-12-12-12-xxxxxxxx--x--x--x-|
-----------------9--9--9--9--9--9--9--9-55555555\-4--5--7-|
----------------------------------------------------------|
----------------------------------------------------------|
----------------------------------------------------------|


CHORUS, Guitar Two
-13-12----10-12--13-12---------13-12----13-12-----13-12---------|
-------13--------------13------------13-------13--------15-13---|
----------------------------------------------------------------|
----------------------------------------------------------------|
----------------------------------------------------------------|
----------------------------------------------------------------|


CHORUS, Guitar Two
----------10-10-10-----------13-13-13------------10-10-10----------|
-13-13-13-----------10-10-10------------13-13-13----------10-10-10-|
-------------------------------------------------------------------|
-------------------------------------------------------------------|
-------------------------------------------------------------------|
-------------------------------------------------------------------|



-13-----------------------12-------------------10---------------------
-\\\\\\\\\\\\\\\\\\\\\\\\\\\\\\\\\\\\\\\\\\\\\\\\\\\\\\\\\\\\\\\\\\\\\
-Tremolo--------------------------------------------------------------|
-speed----------------------------------------------------------------|
-picking--------------------------------------------------------------|
----------------------------------------------------------------------|
Добавлено: 26.03.2012
Другие материалы по этой песне:

Страница создана 26.03.2012
http://primanota.ru/afi/okay-i-feel-better-now-chords.htm
Привет, Гость.
Предлагаем пройти революционный курс по гитаре.
Подарок от PrimaNota.Ru, забирай!