PrimaNota.ru - самый крупный в мире бесплатный архив песенных текстов, аккордов, табулатур и нот


AFI - Porphyria Cutanea Tarda - текст песни, таба, драм-таба, видео

Регистрация Запомнить меня
Войти через:  Facebook Google Twitter Vk Yandex Mail.ru

AFI - Porphyria Cutanea Tarda - текст песни, таба, драм-таба, видео

Печатать
Просмотров: 252
Porphyria Cutanea Tarda

intro
--------------------------------|
--------------------------------|
------------------99------------|
------------77-99-99---quick----|
--99-10-10--xx-xx-77----rest----|
--777-7--77-77777777------------|


verse
---------------------------------------------|
---------------------------------------------|
--99--------------------5x7------------------|
--99-----7/8-7-5555555x-5x7x-5-x7-------5555-|
--77-x---7/8-7-5555555x-3x5x-5-x7-7777x-5555-|
--77-x-0-5/6-5-3333333x-3x5x-3-x5-6555x-3333-|


verse
------------------------------------------------------------------|
------------------------------------------------------------------|
--99--------------------5x7---------pm-----------9----------------|
--99-----7/8-7-5555555x-5x7x-5-x7---==========---9----------------|
--77-x---7/8-7-5555555x-3x5x-5-x7-x-2222222222-7-7-x\-------------|
--77-x-0-5/6-5-3333333x-3x5x-3-x5-x-0000000000-7-7-x\\pick-scrape-|



chorus
-----------------00------------------------------------00---------|
-----------------00------------------------------------00---------|
--55---77---44---xx--55-77--pm------444-55---77---44---xx--55-77--|
--55-x-77---55---22x-55x77x-=======-222-55-x-77---55---22x-55x77x-|
--33-x-55-x-55-x-22x-33x55x-2-2-2-2-222-33-x-55-x-55-x-22x-33x55x-|
--33-x-55-x-33-x-00x-33x55x-0-0-0-0-----33-x-55-x-33-x-00x-33x55x-|


chorus
------------------------------------|
------------------------------------|
--------4------44-4-444-4-----------|
--------2------22-2-222-2-----------|
--=====-2-===--22-2-222-2-x\-pick---|
--0-0-0---0-0-------------x\\scrape-|



verse
---------------------------------------------|
---------------------------------------------|
--99--------------------5x7------------------|
--99-----7/8-7-5555555x-5x7x-5-x7-------5555-|
--77-x---7/8-7-5555555x-3x5x-5-x7-7777x-5555-|
--77-x-0-5/6-5-3333333x-3x5x-3-x5-6555x-3333-|



verse
------------------------------------------------------------------|
------------------------------------------------------------------|
--99--------------------5x7---------pm-----------9----------------|
--99-----7/8-7-5555555x-5x7x-5-x7---==========---9----------------|
--77-x---7/8-7-5555555x-3x5x-5-x7-x-2222222222-7-7-x\-------------|
--77-x-0-5/6-5-3333333x-3x5x-3-x5-x-0000000000-7-7-x\\pick-scrape-|


chorus
-----------------00------------------------------------00---------|
-----------------00------------------------------------00---------|
--55---77---44---xx--55-77--pm------444-55---77---44---xx--55-77--|
--55-x-77---55---22x-55x77x-=======-222-55-x-77---55---22x-55x77x-|
--33-x-55-x-55-x-22x-33x55x-2-2-2-2-222-33-x-55-x-55-x-22x-33x55x-|
--33-x-55-x-33-x-00x-33x55x-0-0-0-0-----33-x-55-x-33-x-00x-33x55x-|


chorus
-----------------------------------------------------|
---------------0-------------------------------------|
--------4------4------------pm-----------------------|
--pm----2-pm---2------------====22222----REST--------|
--=====-2-===--2------------222222222-----------x\p--|
--0-0-0---0-0--0------------000000000-----------x\\--|s


BRIDGE
--------------------------------------------------------------|
-0---------------------------0--------------------------------|
-4--3-2-222--4-44-6----------4--3-2-222-4-6-----harmonix------|
-2--3-2-222--5-55-7-2-2222---2--3-2-222-5-7-2--(5555)---------|
-2--1-0-000--5-55-7-2-2222---2--1-0-000-5-7-2---------(5)-----|
-0--1-0-000--3-33-5-0-0000---0--1-0-000-3-5-0-------------(5)-|



BRIDGE
--------------------------------------------------------------|
-0---------------------------0--------------------------------|
-4--3-2-222--4-44-6----------4--3-2-222-4-6------------4-6----|
-2--3-2-222--5-55-7-2-2222---2--3-2-222-5-7-2-2-22-----5-7----|
-2--1-0-000--5-55-7-2-2222---2--1-0-000-5-7-2-2-22-----5-7----|
-0--1-0-000--3-33-5-0-0000---0--1-0-000-3-5-0-0-00-----3-5----|



BRIDGE
-----------------------------------------|
---------------------------77------------|
-------------------88--99--xx------------|
------------77-99--xx--xx--xx------------|
--99-10-10--xx-xx--xx--xx--xx--x\pick----|
--777-7--77-777777-77-777-777--x\\scrape-|




OUTRO
-------------------------------------------------------------------|
-------------------------------------------------------------------|
-999---9-7---555555555555------------------------------------------|
-999-X-9-7-X-555555555555--5-5-5555-7-7-7777--22-2222-22-2222------|
-777-X-7-5-X-333333333333--5-5-5555-7-7-7777--22-2222-22-2222------|
-777-X-7-5-X-333333333333--3-3-3333-5-5-5555--00-0000-00-0000------|



OUTRO
-------------------------------------------------------------------|
-------------------------------------------------------------------|
-999---9-7---555555555555-----------7-7-7777-----------------------|
-999-X-9-7-X-555555555555--5-5-5555-7-7-7777--22-2222-22-2222------|
-777-X-7-5-X-333333333333--5-5-5555-5-5-5555--22-2222-22-2222------|
-777-X-7-5-X-333333333333--3-3-3333-5-5-5555--00-0000-00-0000------|



OUTRO
-------------------------------------------------------------------|
-------------------------------------------------------------------|
-999---9-7---555555555555------------------------------------------|
-999-X-9-7-X-555555555555--5-5-5555-7-7-7777--22-2222-22-2222------|
-777-X-7-5-X-333333333333--5-5-5555-7-7-7777--22-2222-22-2222------|
-777-X-7-5-X-333333333333--3-3-3333-5-5-5555--00-0000-00-0000------|



OUTRO
-----------------------------------------------------0------(12)---|
-----------------------------------------------------0-------------|
-999---9-7---555555555555-----------7-7-7777---------4-------------|
-999-X-9-7-X-555555555555--5-5-5555-7-7-7777-PM--PM--2-------------|
-777-X-7-5-X-333333333333--5-5-5555-5-5-5555-===-===-2-------------|
-777-X-7-5-X-333333333333--3-3-3333-5-5-5555-000-000-0-------------|
Добавлено: 13.06.2012
Другие материалы по этой песне:

Страница создана 08.03.2012
http://primanota.ru/afi/porphyria-cutanea-tarda-chords.htm
Привет, Гость.
Предлагаем пройти революционный курс по гитаре.
Подарок от PrimaNota.Ru, забирай!