PrimaNota.ru - самый крупный в мире бесплатный архив песенных текстов, аккордов, табулатур и нот


AFI - Leaving Song Part 2 - таба, бас-таба, видео

Регистрация Запомнить меня
Войти через:  Facebook Google Twitter Vk Yandex Mail.ru

AFI - Leaving Song Part 2 - таба, бас-таба, видео

Печатать
Просмотров: 252
&&&&&&&&&&&&&&&&&&&&&&&&&&&&&&&&&&&&&&&&&&&&&&&&&&&&&&&&&&&&&&&&&&&&&&&&&&&&
                      Leaving Song Part 2 - Afi
&&&&&&&&&&&&&&&&&&&&&&&&&&&&&&&&&&&&&&&&&&&&&&&&&&&&&&&&&&&&&&&&&&&&&&&&&&&&

hammer left index:L
hammer right index:R
Pull:p
Palm Mute: x

INTRO:Play the first section 2 times. 1st time is faded.
e|-------R19-p0-R15-L14-------------|---------L17-R19-L15-R17-L14-L15-----|
B|L12-R15---------------R15-/19-R15-|-L12-R15-------------------------R17-|
G|----------------------------------|-------------------------------------|
D|-----(FIRST SECTION)--------------|-------------------------------------|
A|----------------------------------|-------------------------------------|
E|----------------------------------|-------------------------------------|

e|------------------------------------|------------------------------|
B|--------------------------0---------|--------------------------0---|
G|--12-----11----9--9---9-9-0-9-------|--12-----11----9--9---9-9-0-9-|
D|--xx------x----x--x---x-x-0-x-------|--xx------x----x--x---x-x-0-x-|
A|--10------9----7--7---7-7-0-7-------|--10------9----7--7---7-7-0-7-|
E|--00---0--0-0--0--0---0-0---0-------|--00---0--0-0--0--0---0-0---0-|

e|------------------------------------|------------------------------|
B|--------------------------------0---|------------------------------|
G|--12------14/16--9-9--9-9-9-9-9-0-9-|--7-------7----7--7--7--7/9---|
D|--xx------xx-----x-x--x-x-x-x-x-0-x-|--7-------7----5--5--5--5/7---|
A|--10------12/14--7-7--7-7-7-7-7-0-7-|--5----5--5----5--5--5--5/7---|
E|--00---0--00-----0-0----0-0-0-0---0-|--5----5--5--0----------------|

e|------------------------------------|------------------------------|
B|---------------------------0--------|------------------------------|
G|--12----11----9---9--9--9--0--9-----|--12----11-----9-9--9-9-x-0---|
D|--xx-----x----x---x--x--x--0--x-----|--xx-----x-----x-x--x-x-x-0---|
A|--10-----9----7---7--7--7-----7-----|--10-----9-----7-7--7-7-x-0---|
E|--00--0--0-0--0---0--0--0-----0-----|--00--0--0--0--0-0--0-0-------|

e|----------------------------------------|------------------------------|
B|------------------12-12\10-10-10--------|--7------7-----8-8-8-8/10-8---|
G|--12-----14/16--9--9--9-----9--9------0-|--7------7-----7-7-7-7/9--7-0-|
D|--xx-----xx/----x--x--x-----x--x------0-|--7---7--7-----5-5-5-5/7--5-0-|
A|--10-----12/14--7--7--7-----7--7------0-|--5---5--5-----5-5-5-5/7--5-0-|
E|--00--0--00/----0-----------0--0---0--0-|--5---5--5---0--------------0-|

e|-12-x-x-15-x-x-14-x-x-10-x-x-14-x-x-12-x-|-12-x-x-15-x-x-14-x-x-10-10-10---|
B|---------------------------------------------------------------------------|
G|---------------------------------------------------------------------------|
D|---------------------------------------------------------------------------|
A|---------------------------------------------------------------------------|
E|---------------------------------------------------------------------------|

e|-14-14-12--0--------------------------------------------------------------|
B|--------------------------------------------------------------------------|
G|--------------------------------------------------------------------------|
D|--------------------------------------------------------------------------|
A|--------------------------------------------------------------------------|
E|--------------------------------------------------------------------------|

That's all I know so far so I'll up date when I get more! ^_^
Добавлено: 17.06.2012
Другие материалы по этой песне:

Страница создана 22.02.2012
http://primanota.ru/afi/leaving-song-part-2-chords.htm
Привет, Гость.
Предлагаем пройти революционный курс по гитаре.
Подарок от PrimaNota.Ru, забирай!