PrimaNota.ru - самый крупный в мире бесплатный архив песенных текстов, аккордов, табулатур и нот


AFI - Fainting Spells - текст песни, таба, бас-таба, видео

Регистрация Запомнить меня
Войти через:  Facebook Google Twitter Vk Yandex Mail.ru

AFI - Fainting Spells - текст песни, таба, бас-таба, видео

Печатать
Просмотров: 337
Fainting Spells by AFI
Crash Love Bonus Track, from DU recording sessions

Tabbed by Hazel (lezah)

Tuning: half step down
< > - harmonics
.   - palm mute
/   - slide up
\   - slide down
h   - hammer on
p   - pull off
b/r - break/release


Intro - play twice, continuing on to verse

Acoustic
eb|---------------------------------|
Bb|---------------------------------|
Gb|---------------------------------|
Db|---------------------------------|
Ab|-----2-------2-------0-------2---|
Eb|-0-0---0-2-2---2-1-1---1-3-3---3-|

I think I may ...
(Not tabbed according to strumming, so please listen for rhythm)

eb|-------3-1-|
Bb|-------3-1-|
Gb|-2-4-5-4-3-|
Db|-2-2-5-5-3-|
Ab|-0-0-3-5-1-|
Eb|-------3-1-|

Just give me something

cold...
eb|---------------------------------|
Bb|---------------------------------|
Gb|---------------------------------|
Db|---------------------------------|
Ab|-----2-------2-------0-------2---|
Eb|-0-0---0-2-2---2-1-1---1-3-3---3-|

As I...

Eb|-0-0-0-0-2-2-2-2-1-1-1-1-3-3-3-3-|

then it builds up to this
eb|-3-x|
Bb|-0-x|
Gb|-0-x|
Db|-2-x|
Ab|-2-x|
Eb|-0-x|

I pray to reason (not sure about these lyrics):

            Electric!
eb|-------3-1-----|
Bb|-------3-1-----|
Gb|-2-4-5-4-3-----|
Db|-2-2-5-5-3-<6>-|
Ab|-0-0-3-5-1-<6>-|
Eb|-------3-1-<6>-|

Chorus (can't hear every bit, but I'm playing it this way)
Once again I'm not tabbing out the strumming pattern.

eb|-----|---------------|
Bb|-----|---------------|
Gb|-----|---------5---7-| x3
Db|-<6>-|-2-5-4-2-5-5-5-|
Ab|-<6>-|-2-------3-5-5-|
Eb|-<6>-|-0---------3---|

eb|---------------|
Bb|---------------|
Gb|---------5---7-|
Db|-2-5-4-2-5-5-5-|
Ab|-2-------3-5-5-|
Eb|-0---------3---|

eb|-------------------2---|
Bb|-------------------3---|
Gb|---------55-5-55-5-2---| Strumming pattern for the palm-muted chord
Db|-2-5-4-2-55-5-55-5-0---| is a bit confusing, but after a few times
Ab|-2-------33-3-33-3-----| you play it without the palm-mute, then the
Eb|-0-------33-3-33-3-----| last chord.
            .. . ..

pre-verse:
Acoustic
eb|----------------------------------------------------------------|
Bb|------------------------------0---------------------------------|
Gb|---------------------2----------------0-------------------------|
Db|-----2-------0-----0--0-----0---0-------2---------0---4-4-4-4-5-|
Ab|---2---2-------2--------0-----------2---------------2-4-4-4-4-5-|
Eb|-0-------2-3-----1--------3-------0---------2p0h2-----2-2-2-2-3-|

eb|---------------------------------|
Bb|---------------------------------|
Gb|---------------------------------|
Db|---------------------------------|
Ab|-----2-------2-------0-------2---|
Eb|-0-0---0-2-2---2-1-1---1-3-3---3-|

but please pretend

Eb|-0-0-0-0-2-2-2-2-1-1-1-1-3-3-3-3-|

eb|-3-x|
Bb|-0-x|
Gb|-0-x|
Db|-2-x|
Ab|-2-x|
Eb|-0-x|
            Electric!
eb|-------3-1-----1-----|
Bb|-------3-1-----1-----|
Gb|-2-4-5-4-3-----3-----|
Db|-2-2-5-5-3-<6>-3-<6>-|
Ab|-0-0-3-5-1-<6>-1-<6>-|
Eb|-------3-1-<6>-1-<6>-|

Chorus again:

eb|-----|---------------|
Bb|-----|---------------|
Gb|-----|---------5---7-| x3
Db|-<6>-|-2-5-4-2-5-5-5-|
Ab|-<6>-|-2-------3-5-5-|
Eb|-<6>-|-0---------3---|

eb|---------------|
Bb|---------------|
Gb|---------5---7-|
Db|-2-5-4-2-5-5-5-|
Ab|-2-------3-5-5-|
Eb|-0---------3---|

eb|-------------------2---|
Bb|-------------------3---|
Gb|---------55-5-55-5-2---|
Db|-2-5-4-2-55-5-55-5-0---|
Ab|-2-------33-3-33-3-----|
Eb|-0-------33-3-33-3-----|
            .. . ..

Bridge (bass)
Ab|---------|                              Ab|-7-6-3---4-3-2------|
Eb|-0-0-2-3-| x19 or 20, I lost count, then Eb|-------3-------2---|

guitar
eb|---------------------------------|
Bb|---------------------------------|There might be
Gb|-9\------------------------------| another guitar:
Db|-9\2-222-5-4-|-0h2-2p0h222-5-4---|
Ab|-7\2-----------------------------|
Eb|-7\0-----------------------------|

And back to the chorus...

eb|-----|---------------|
Bb|-----|---------------|
Gb|-----|---------5---7-| x3
Db|-<6>-|-2-5-4-2-5-5-5-|
Ab|-<6>-|-2-------3-5-5-|
Eb|-<6>-|-0---------3---|

eb|---------------|
Bb|---------------|
Gb|---------5---7-|
Db|-2-5-4-2-5-5-5-|
Ab|-2-------3-5-5-|
Eb|-0---------3---|

eb|-------------------|-----|
Bb|-------------------|-----|
Gb|---------55-5-55-5-|-5-7-|
Db|-2-5-4-2-55-5-55-5-|-5-7-|
Ab|-2-------33-3-33-3-|-3-5-|
Eb|-0-------33-3-33-3-|-3-5-|
            .. . ..

eb|-----|---------------|                          |-7-3-3333-2------------|
Bb|-----|---------------|                          |------------3-5-3-3h5--|
Gb|-----|---------5---7-| x3-----------------------------------------------|     Meanwhile another
Db|-<6>-|-2-5-4-2-5-5-5----------------------------------------------------|        guitar plays:
Ab|-<6>-|-2-------3-5-5----------------------------------------------------|
Eb|-<6>-|-0---------3------------------------------------------------------|

eb|---------------|
Bb|---------------|
Gb|---------5---7-|
Db|-2-5-4-2-5-5-5-|
Ab|-2-------3-5-5-|
Eb|-0---------3---|

Just the chords again:
eb|-------------------1111---<2>---|
Bb|--------------------------<2>---|
Gb|---------5--7-2-5---------<2>---|
Db|-2-5-4-2-5--7-2-5-3-----2-------|
Ab|-2-------3--5-0-3-3-----2-------|
Eb|-0-------3--5-0-3-1-----0-------|
                           .
Добавлено: 07.07.2012
Другие материалы по этой песне:

Страница создана 08.03.2012
http://primanota.ru/afi/fainting-spells-chords.htm
Привет, Гость.
Предлагаем пройти революционный курс по гитаре.
Подарок от PrimaNota.Ru, забирай!