PrimaNota.ru - самый крупный в мире бесплатный архив песенных текстов, аккордов, табулатур и нот


AFI - Lower It - текст песни, таба, бас-таба, видео

Регистрация Запомнить меня
Войти через:  Facebook Google Twitter Vk Yandex Mail.ru

AFI - Lower It - текст песни, таба, бас-таба, видео

Печатать
Просмотров: 241
Уроки эстрадного вокала в Санкт-Петербурге
Lower It

This is a real fun song to play.
It was on the vinyl version of Black Sails if i recall correctly.
Great fucking song.
I threw the bass intro in there just for fun, its pretty much what the
guitar does in the song which absolutely fucking nuts, but like i said,
hard but fun. i love jade and hunter.

Bass intro
---------------------------------------------------------------------|
---------------------------------------------------------------------|
5-------1----------1111111-3333333-55-------1---------1111111--------|
-1/3333---3-1-33-3-------------------1/3333---3-1-33-3-------1111111-|


Guitar intro
--harm------------------------------|
-(9)-----(5)------------------------|
--------0---------------------------|
------------------------------------|
------------------------------------|
------------------------------------|


verse
---------------------------------------------------------------------|
---------------------------------------------------------------------|
---pm----------------======-======---------------------======-======-|
-7-====---3----------333333-555555-7-====---3----------333333-333333-|
-5-5555-x-1-5-3/55-=-111111-333333-5-5555-x-1-5-3/55-=-111111-333333-|
---3333-x---3-1/33-3-111111-333333---3333-x---3-1/33-3-111111-111111-|


verse
---------------------------------------------------------------------|
---------------------------------------------------------------------|
---pm----------------======-======---------------------======-======-|
-7-====---3----------333333-555555-7-====---3----------333333-333333-|
-5-5555-x-1-5-3/55-=-111111-333333-5-5555-x-1-5-3/55-=-111111-333333-|
---3333-x---3-1/33-3-111111-333333---3333-x---3-1/33-3-111111-111111-|


Pre-chorus
------------------------------------|
------------------------------------|
--77-----77--------7------------33--|
--77-----77--------7----------3-33--|
--55-----55--------5----------3-11--|
--55-----55--------5----------1-11--|


chorus
|---------------------------------------------------------|-----|
|:-------------------------------------------------------:|-----|
|-----------------------555555--------------6-55---3------|-----|
|--555555555555-3333333-555555-55555555555--6-55-x-33333--|-----|
|:-555555555555-3333333-333333-55555555555--4-33-x-13333-:|-----|
|--333333333333-1111111-333333-33333333333--4-33-x-11111--|--3--|


verse
---------------------------------------------------------------------|
---------------------------------------------------------------------|
---pm----------------======-======---------------------======-======-|
-7-====---3----------333333-555555-7-====---3----------333333-333333-|
-5-5555-x-1-5-3/55-=-111111-333333-5-5555-x-1-5-3/55-=-111111-333333-|
---3333-x---3-1/33-3-111111-333333---3333-x---3-1/33-3-111111-111111-|


verse
---------------------------------------------------------------------|
---------------------------------------------------------------------|
---pm----------------======-======---------------------======-======-|
-7-====---3----------333333-555555-7-====---3----------333333-333333-|
-5-5555-x-1-5-3/55-=-111111-333333-5-5555-x-1-5-3/55-=-111111-333333-|
---3333-x---3-1/33-3-111111-333333---3333-x---3-1/33-3-111111-111111-|


Pre-chorus
------------------------------------|
------------------------------------|
--77-----77--------7------------33--|
--77-----77--------7----------3-33--|
--55-----55--------5----------3-11--|
--55-----55--------5----------1-11--|


chorus
|---------------------------------------------------------|-----|
|:-------------------------------------------------------:|-----|
|-----------------------555555--------------6-55---3------|-----|
|--555555555555-3333333-555555-55555555555--6-55-x-33333--|-----|
|:-555555555555-3333333-333333-55555555555--4-33-x-13333-:|-----|
|--333333333333-1111111-333333-33333333333--4-33-x-11111--|--3--|


bridge, 3Xs
|------------------------------------|
|:----------------------------------:|
|--888-----10-10-10-10-10-10-10-10---|
|--888-888-10-10-10-10-10-10-10-10---|
|:-666-888--8--8--8--8--8--8--8--8--:|
|--666-666--8--8--8--8--8--8--8--8---|


bridge outro
----------------------------------------------------------------|
---------pm-----------------------------------------------------|
-888-----========-===-555555--------------5555--------6-55-3----|
-888-888-66666666-555-555555---555555-333-5555-555555-6-55-3-33-|
-666-888-44444444-333-333333---555555-333-3333-555555-4-33-1-33-|
-666-666-44444444-333-333333---333333-111-3333-333333-4-33-1-11-|



chorus
|---------------------------------------------------------|
|:-------------------------------------------------------:|
|-----------------------555555--------------6-55---3------|
|--555555555555-3333333-555555-55555555555--6-55-x-33333--|
|:-555555555555-3333333-333333-55555555555--4-33-x-13333-:|
|--333333333333-1111111-333333-33333333333--4-33-x-11111--|



outro
-----------------------------------------------------------------------|
-----------------------------------------------------------------------|
777777777777777777-888888888888555555555555-pm--------666----------666-|
555555555544443333-888888888888555555555555-=========-555-========-555-|
-------------------666666666666333333333333-444444444-444-44444444-444-|
-------------------666666666666333333333333----------------------------|



outro
-----------------------------------------------------------------------|
-----------------------------------------------------------------------|
777777777777777777-888888888888555555555555-pm--------666----------666-|
555555555544443333-888888888888555555555555-=========-555-========-555-|
-------------------666666666666333333333333-444444444-444-44444444-444-|
-------------------666666666666333333333333----------------------------|


outro
------------------------------------|
------------------------------------|
pm--------666----------666-6--------|
=========-555-========-555-5--------|
444444444-444-44444444-444-4--------|
------------------------------------|
Добавлено: 06.04.2012
Другие материалы по этой песне:

Страница создана 21.03.2012
http://primanota.ru/afi/lower-it-chords.htm
Привет, Гость.
Предлагаем пройти революционный курс по гитаре.
Подарок от PrimaNota.Ru, забирай!