PrimaNota.ru - самый крупный в мире бесплатный архив песенных текстов, аккордов, табулатур и нот


Adept - If Im A Failure Youre A Tragedy - текст песни, таба, видео

Регистрация Запомнить меня
Войти через:  Facebook Google Twitter Vk Yandex Mail.ru

Adept - If Im A Failure Youre A Tragedy - текст песни, таба, видео

Печатать
Просмотров: 216
Уроки эстрадного вокала в Санкт-Петербурге
My f|rst tab ever so don't be mean :)

Made a cover on youtube:
http://www.youtube.com/user/Angus|l?feature=mhum#p/a/u/0/oBE5AP0o5X4


x2 0:00-0:10
|-------------------------------------------------------|
|---------------------10h11--10----11p10----------------|
|-------------10h12----------------------10-------------|
|-----10h12---------------------------------------------|
|-------------------------------------------------------|
|---0-------0-------0-----------0-----------------------|

|-------------------------------------------------------|
|---------------------13h15-----------------------------|
|-------------10h12----------12h14-10h12----------------|
|-----10h12---------------------------------------------|
|-------------------------------------------------------|
|---0-------0-------0-----------------------------------|


x2 0:10-0:20 (you'll f|gure the rhythm yourself)
|-------------------------------------------------------|
|-------------------------------------------------------|
|-------------------------------------------------------|
|--0---8---10-------------------------------------------|
|--0---8---10-------------------------------------------|
|--0---8---10-------------------------------------------|

0:20-0:32
|--------13p-12p-10h12-13h15-13-12h13p12----------------|
|-------------------------------------------------------|
|-------------------------------------------------------|
|-------------------------------------------------------|
|-------------------------------------------------------|
|-------------------------------------------------------|

|-------13p-12p-10h12-13h15-13-12h13p12-----------------|
|---------------------------------------13h15-----------|
|-------------------------------------------------------|
|-------------------------------------------------------|
|-------------------------------------------------------|
|-------------------------------------------------------|

|--------13p-12p-10h12-13h15-13-12h13p12----------------|
|-------------------------------------------------------|
|-------------------------------------------------------|
|-------------------------------------------------------|
|-------------------------------------------------------|
|-------------------------------------------------------|

|--------13p-12p-10h12-13h15/---------------------------|
|-------------------------------------------------------|
|-------------------------------------------------------|
|-------------------------------------------------------|
|-------------------------------------------------------|
|-------------------------------------------------------|

0:32-0:57
|-------------------------------------------------------|
|-------------------------------------------------------|
|-------------------------------------------------------|
|-------------------------------------------------------|
|---0-0--5p--7p--0----------0-0-------------------------|
|---0-0----------0-5p0-5h7--0-0--x-x-x-0-0-0-0----------|

|-------------------------------------------------------|
|-------------------------------------------------------|
|-------------------------------------------------------|
|-------------------------------------------------------|
|---0-0--5p--7p--0----------0-0-------------------------|
|---0-0----------0-5p0-5h7--0-0--x-x-x-0-0-0-0--000-----|

|-------------------------------------------------------|
|-------------------------------------------------------|
|-------------------------------------------------------|
|-------------------------------------------------------|
|---0-0--5p--7p--0----------0-0-------------0-----------|
|---0-0----------0-5p0-5h7--0-0--x-x-x--5p0-0-5p0-5h7---|


|-----------------------------------------------|
|-----------------------------------------------|
|-----------------------------------------------|
|-----------------------------------------------|
|--0--------------------------------------------|
|--0--(f|gure rhythm here)---5p0-0-5p0-5h7------|

0:57-1:10
|--------13p-12p-10h12-13h15-13-12h13p12----------------|
|-------------------------------------------------------|
|-------------------------------------------------------|
|-------------------------------------------------------|
|-------------------------------------------------------|
|-------------------------------------------------------|

|-------13p-12p-10h12-13h15-13-12h13p12-----------------|
|---------------------------------------13h15-----------|
|-------------------------------------------------------|
|-------------------------------------------------------|
|-------------------------------------------------------|
|-------------------------------------------------------|

|--------13p-12p-10h12-13h15-13-12h13p12----------------|
|-------------------------------------------------------|
|-------------------------------------------------------|
|-------------------------------------------------------|
|-------------------------------------------------------|
|-------------------------------------------------------|

|-------13p-12p-10h12-13h15-13-12h13p12--------------------|
|---------------------------------------13h15-r|ng---------|
|----------------------------------------------------------|
|----------------------------------------------------------|
|----------------------------------------------------------|
|----------------------------------------------------------|

1:10-1:30
|------------17p13--------12h13-------------------------|
|------13h15--------13h15-------13-13h15----------------|
|-------------------------------------------------------|
|-------------------------------------------------------|
|-------------------------------------------------------|
|-------------------------------------------------------|

|------------17p13--------12h13----15h17----------------|
|------13h15--------13h15-------------------------------|
|-------------------------------------------------------|
|-------------------------------------------------------|
|-------------------------------------------------------|
|-------------------------------------------------------|

|------------17p13--------12h13-------------------------|
|------13h15--------13h15-------13-13h15----------------|
|-------------------------------------------------------|
|-------------------------------------------------------|
|-------------------------------------------------------|
|-------------------------------------------------------|

|------------17p13--------12h13----15h17----------------|
|------13h15--------13h15-------------------------------|
|-------------------------------------------------------|
|-------------------------------------------------------|
|-------------------------------------------------------|
|-------------------------------------------------------|

|-------------------------------------------------------|
|-------------------------------------------------------|
|-------------------------------------------------------|
|---0---8---10------------------------------------------|
|---0---8---10-----x2-----------------------------------|
|---0---8---10------------------------------------------|

1:30-1:37
|-------------------------------------------------------|
|-------------------------------------------------------|
|-------------------------------------------------------|
|-------------------------------------------------------|
|-------------------------------------------------------|
|----0000000---0-0-0-0-0--0--0--0--0-0-0-0-0--000-000---|

1:37-1:46
|-------------------------------------------------------------------|
|-------------------------------------------------------------------|
|-------------------------------------------------------------------|
|---------------3---8-8-8-8--5-5--0---------------3-----------------|
|---------------3---8-8-8-8--5-5--0---------------3-----------------|
|--12b-12b-12b--3---8-8-8-8--5-5--0--12b-12b-12b--3---5p0-0-5h7-0---|

1:37-2:02
|--------13p-12p-10h12-13h15-13-12h13p12----------------|
|-------------------------------------------------------|
|-------------------------------------------------------|
|-------------------------------------------------------|
|-------------------------------------------------------|
|-------------------------------------------------------|

|-------13p-12p-10h12-13h15-13-12h13p12-----------------|
|---------------------------------------13h15-----------|
|-------------------------------------------------------|
|-------------------------------------------------------|
|-------------------------------------------------------|
|-------------------------------------------------------|

|--------13p-12p-10h12-13h15-13-12h13p12----------------|
|-------------------------------------------------------|
|-------------------------------------------------------|
|-------------------------------------------------------|
|-------------------------------------------------------|
|-------------------------------------------------------|

|-------13p-12p-10h12-13h15-13-12h13p12-----------------|
|---------------------------------------13h15-----------|
|-------------------------------------------------------|
|-------------------------------------------------------|
|-------------------------------------------------------|
|-------------------------------------------------------|

|------------17p13--------12h13-------------------------|
|------13h15--------13h15-------13-13h15----------------|
|-------------------------------------------------------|
|-------------------------------------------------------|
|-------------------------------------------------------|
|-------------------------------------------------------|
                                                             (sweep th|s)
|------------17p13--------13h17p13----------------------|
|------13h15--------13h15---------15--------------------|
|-----------------------------------14------------------|
|-------------------------------------------------------|
|-------------------------------------------------------|
|-------------------------------------------------------|

2:02-2:22
|------------17p13--------12h13-------------------------|
|------13h15--------13h15-------13-13h15----------------|
|-------------------------------------------------------|
|-------------------------------------------------------|
|-------------------------------------------------------|
|-------------------------------------------------------|

|------------17p13--------12h13----15h17----------------|
|------13h15--------13h15-------------------------------|
|-------------------------------------------------------|
|-------------------------------------------------------|
|-------------------------------------------------------|
|-------------------------------------------------------|

|------------17p13--------12h13-------------------------|
|------13h15--------13h15-------13-13h15----------------|
|-------------------------------------------------------|
|-------------------------------------------------------|
|-------------------------------------------------------|
|-------------------------------------------------------|

|------------17p13--------12h13----15h17----------------|
|------13h15--------13h15-------------------------------|
|-------------------------------------------------------|
|-------------------------------------------------------|
|-------------------------------------------------------|
|-------------------------------------------------------|

|-------------------------------------------------------|
|-------------------------------------------------------|
|-------------------------------------------------------|
|---0---8---10------------------------------------------|
|---0---8---10-----x2-----------------------------------|
|---0---8---10------------------------------------------|

2:22-2:34
|-------------------------------------------------------|
|-------------------------------------------------------|
|-------------------------------------------------------|
|-------------------------------------------------------|
|-------------------------------------------------------|
|----0000000---0-0-0-0-0--0--0--0--0-0-0-0-0--000-000---|  x2

|-------------------------------------------------------|
|-------------------------------------------------------|
|-------------------------------------------------------|
|-------------------------------------------------------|
|-------------------------------------------------------|
|------0-0-0-0-0-0-0-0-0-0-0-0-12/----------------------|

2:34-2:39
|-------------------------------------------------------|
|---------------------10h11--10----11p10----------------|
|-------------10h12----------------------10-------------|
|-----10h12---------------------------------------------|
|-------------------------------------------------------|
|---0-------0-------0-----------0-----------------------|

|---------------------------13h17p13--------------------|
|-------------------------15--------15------------------|
|--------------10-------14------------14----------------|
|------10h12----------15--------------------------------|
|-------------------17----------------------------------|
|---0--------0------------------------------------------|

2:39-2:50
|---------------------------------------------------------------|
|---------------------------------------------------------------|
|---------------------------------------------------------------|
|---------------------------------------------------------------|
|---------------------------------------------------------------|
|----0 (a hole lot of spamm|ng)---12/---------------------------|

2:50-3:01
|-------------------------------------------------------|
|---------------------10h11--10----11p10----------------|
|-------------10h12----------------------10-------------|
|-----10h12---------------------------------------------|
|-------------------------------------------------------|
|---0-------0-------0-----------0-----------------------|

|-------------------------------------------------------|
|---------------------13h15-----------------------------|
|-------------10h12----------12h14-10h12----------------|
|-----10h12---------------------------------------------|
|-------------------------------------------------------|
|---0-------0-------0-----------------------------------|

|-------------------------------------------------------|
|---------------------10h11--10----11p10----------------|
|-------------10h12----------------------10-------------|
|-----10h12---------------------------------------------|
|-------------------------------------------------------|
|---0-------0-------0-----------0-----------------------|

|-------------------------------------------------------|
|---------------------13h15-----------------------------|
|-------------10h12-------------------------------------|
|-----10h12---------------------------------------------|
|-------------------------------------------------------|
|---0-------0-------0--------0000-----------------------|
Добавлено: 14.07.2012
Другие материалы по этой песне:

Страница создана 01.04.2012
http://primanota.ru/adept/if-im-a-failure-youre-a-tragedy-chords.htm
Привет, Гость.
Предлагаем пройти революционный курс по гитаре.
Подарок от PrimaNota.Ru, забирай!