PrimaNota.ru - самый крупный в мире бесплатный архив песенных текстов, аккордов, табулатур и нот


Adept - When The Sun Gave Up The Sky - текст песни, таба, видео

Регистрация Запомнить меня
Войти через:  Facebook Google Twitter Vk Yandex Mail.ru

Adept - When The Sun Gave Up The Sky - текст песни, таба, видео

Печатать
Просмотров: 205
-------------------------------------------------------------------------------
                             SONG NAME - Band Name
-------------------------------------------------------------------------------
Tabbed by: Jay D
Email: broken_wings_will_fly_again@msn.com

Tuning: Drop D

The strumming isn't spot on in every part, work it out :)
I decided to figure out both lead & rhythm and now have fixed the tab :)
I'm pretty sure it's mostly correct, just read the tab carefully,
While listening to the song closely lol
DROP D
Have fun ! =]

GUITAR 1 (LEAD)

INTRO
|---------------------------------------------|
|---------------------------------------------|
|-131313-----131313-----111111-----111111-----|
|--x-x-x-000--x-x-x-000--x-x-x-000--x-x-x-000-|
|-111111-000-111111-000--9-9-9-000--9-9-9-000-|
|--------000--------000--------000--------000-|
         ...        ...        ...        ...
|---------------------------------------------|
|---------------------------------------------|
|-141414-----141414-----111111-----111111-----|
|--x-x-x-000--x-x-x-000--x-x-x-000--x-x-x-000-|
|-121212-000-121212-000--9-9-9-000--9-9-9-000-|
|--------000--------000--------000--------000-|
         ...        ...        ...        ...
VERSE 1
|-------------------------------------|
|-------------------------------------|
|------------------7------------------|
|7-7------------7----7p5-7p5-7----7-7-|
|----5-5p0-5p0-5--5-----5---5---------|
|------------------------------7p0----|

|---------------------------------------------|
|---------------------------------------------|
|-131313-----131313-----111111-----111111-----|
|--x-x-x-000--x-x-x-000--x-x-x-000--x-x-x-000-|
|-111111-000-111111-000--9-9-9-000--9-9-9-000-|
|--------000--------000--------000--------000-|
         ...        ...        ...        ...
|---------------------------------------------| |----------------|
|---------------------------------------------| |----------------|
|-141414-----141414-----111111-----111111-----| |-10~-9-10p9~----|
|--x-x-x-000--x-x-x-000--x-x-x-000--x-x-x-000-| |--------------0-|
|-121212-000-121212-000--9-9-9-000--9-9-9-000-| |--------------0-|
|--------000--------000--------000--------000-| |--------------0-|
         ...        ...        ...        ...
PRE-CHORUS 1
|-------------------------------------------------------------------------|
|-------------------------------------------------------------------------|
|-----999-----9-----999-------------------999-----9-9-----999-------------|
|-000-888-000-8-000-888-000-----------000-888-000-8-8-000-888-000--5b/p0--|
|-000-----000---000-----000--0-5b/p0--000-----000-----000-----000---------|
|-000-----000---000-----000-0-------0-000-----000-----000-----000-0-----0-|

|---------------------------------------------------------------|
|---------------------------------------------------------------|
|--------------9-------------------------------------9----------|
|-0000-00-0000-8-0000-00-0000-----------0000-00-0000-8-0000-000-|
|-0000-00-0000---0000-00-0000--0-5b/p0--0000-00-0000---0000-000-|
|-0000-00-0000---0000-00-0000-0-------0-0000-00-0000---0000-000-|

|---------------------------------|
|----7----7----7------------------|
|-----7----7----7----7----7----7--| [Hard to hear =/]
|-5-5--5-5--5-5-------5----5----5-|
|-----------------5-5--5-5--5-5---|
|---------------------------------|

|--------------------------|
|----7----7----------------|
|-----7----7---------------|
|-5-5--5-5---55555555-xxxx-|
|------------55555555-xxxx-|
|------------55555555-xxxx-|

CHORUS
|*10b---------------------------------|
|-------------------------------------|
|-99999999-55555555-99999999-77777777-| x2 (*Only first time)
|-xxxxxxxx-xxxxxxxx-xxxxxxxx-xxxxxxxx-|
|-77777777-33333333-77777777-55555555-|
|-------------------------------------|

VERSE 2
|----------------------|
|----------------------|
|------7------------7--|
|-7-------7-5--7-----7-|
|-------5--------------|
|---5p0----------5p0---|

|---------------------------------------------|
|---------------------------------------------|
|-131313-----131313-----111111-----111111-----|
|--x-x-x-000--x-x-x-000--x-x-x-000--x-x-x-000-|
|-111111-000-111111-000--9-9-9-000--9-9-9-000-|
|--------000--------000--------000--------000-|
         ...        ...        ...        ...
|---------------------------------------------|
|---------------------------------------------|
|-141414-----141414-----111111-----111111-----|
|--x-x-x-000--x-x-x-000--x-x-x-000--x-x-x-000-|
|-121212-000-121212-000--9-9-9-000--9-9-9-000-|
|--------000--------000--------000--------000-|
         ...        ...        ...
|------------------------14---14~-|
|-------------------15-15--15~----|
|-131313-----131313---------------|
|--x-x-x-000--x-x-x---------------|
|-111111-000-111111---------------|
|--------000----------------------|
         ...
|---------------------------------------------|
|---------------------------------------------|
|-141414-----141414-----111111-----111111-----|
|--x-x-x-000--x-x-x-000--x-x-x-000--x-x-x-000-|
|-121212-000-121212-000--9-9-9-000--9-9-9-000-|
|--------000--------000--------000--------000-|
         ...        ...        ...

PRE-CHORUS 2
|----------3p0-----------3p0----|
|-------------3-------------3\1-|
|--5--7--5-------5--7--5--------|
|-7--7--7-------7--7--7---------|
|-------------------------------|
|-------------------------------|

|-------|
|-------|
|--5--7-|
|-7--7--|
|-------|
|-------|

CHORUS
|*10b---------------------------------|
|-------------------------------------|
|-99999999-55555555-99999999-77777777-| x2 (*Only 1st time)
|-xxxxxxxx-xxxxxxxx-xxxxxxxx-xxxxxxxx-|
|-77777777-33333333-77777777-55555555-|
|-------------------------------------|

BRIDGE
|------9p7p0-----7p5-5p0-----9p7p0-----------|
|-------------------------------------10-----|
|-99999-----77777-------99999------999-99999-|
|-xxxxx-----xxxxx-------xxxxx------xxx-xxxxx-|
|-77777-----55555-------77777------777-77777-|
|--------------------------------------------|

|---------------------------------------|    |----------------9-----|
|-9h10p9---9h10p9------8---------10-----|    |-88----1010-10---10---|
|-------9--------9--777777777-999-99999-| x2 |-77-44--9-9--7--------|
|-------------------xxxxxxxxx-xxx-xxxxx-|    |-xx-xx--x-x--7-----12-|
|-------------------555555555-777-77777-|    |-55-22--7-7-----------|
|---------------------------------------|    |----------------------|

|--------------------------------------------------------------|
|----5-------5------5-------5------5-------5------5-------5----|
|---7-7-7---7-7-7--7-7-7---7-7-7--7-7-7---7-7-7--7-7-7---7-7-7-|
|--7---7---7---7--7---7---7---7--7---7---7---7--7---7---7---7--|
|-5------55------4------44------5------55------4------44-------|
|--------------------------------------------------------------|

|--------------------------------------------------------------|
|----5-------5------5-------5------5-------5------5-------5----|
|---7-7-7---7-7-7--7-7-7---7-7-7--7-7-7---7-7-7--7-7-7---7-7-7-|
|--7---7---7---7--7---7---7---7--7---7---7---7--7---7---7---7--|
|-0------00------4------44------5------55------4------44-------|
|--------------------------------------------------------------|

|--------------------------------|
|----5-------5------5-------5----|
|---7-7-7---7-7-7--7-7-7---7-7-7-|
|--7---7---7---7--7---7---7---7--|
|-5------55------4------44-------|
|--------------------------------|

|--------------------------------------------------------------|
|----5-------5------5-------5------5-------5------5-------5----|
|---7-7-7---7-7-7--7-7-7---7-7-7--7-7-7---7-7-7--7-7-7---7-7-7-|
|--7---7---7---7--7---7---7---7--7---7---7---7--7---7---7---7--|
|-0------00------4------44------5------55------4------44-------|
|--------------------------------------------------------------|

|--------------------------------|
|----5-------5------5-------5----|
|---7-7-7---7-7-7--7-7-7---7-7-7-|
|--7---7---7---7--7---7---7---7--|
|-5------55------4------44-------|
|--------------------------------|

|-----------------------------|
|----5-------5------5-------5-|
|---7-7-7---7-7-7--7-7-7---7--|
|--7---7---7---7--7---7---7---|
|-0------00------4------44----|
|-----------------------------|

OUTRO
|-----------------|    |-xxxx-|
|-----------------|    |-xxxx-|
|-777777~-666666~-| x4 |-xxxx-|
|-xxxxxx~-xxxxxx~-|    |-xxxx-|
|-555555~-444444~-|    |-xxxx-|
|-----------------|    |-xxxx-|

|----------------------------------|
|----------------------------10----|
|-777777~-666666~-777777~-xxx-9-6~-|
|-xxxxxx~-xxxxxx~-xxxxxx~-xxx-x-x~-|
|-555555~-444444~-555555~-xxx-7-4~-|
|-------------------------xxx------|


GUITAR 1 (RHYTHM)

INTRO
|---------------------------------|
|---------------------------------|
|-666-----666-----444-----444-----| x2
|-666-000-666-000-444-000-444-000-|
|-444-000-444-000-222-000-222-000-|
|-----000-----000-----000-----000-|
      ...     ...     ...     ...
VERSE 1
|------------|
|------------|
|------------|
|-0--0--0--0-|
|-0--0--0--0-|
|-0--0--0--0-|
     .  .  .
|---------------------------------|    |---------|
|---------------------------------|    |---------|
|-666-----666-----444-----444-----| x2 |---------|
|-666-000-666-000-444-000-444-000-|    |-0-0~--0-|
|-444-000-444-000-222-000-222-000-|    |-0-0~--0-|
|-----000-----000-----000-----000-|    |-0-0~--0-|
      ...     ...     ...     ...        . .
PRE-CHORUS 1
|-------------------------------------------------------------------------|
|-------------------------------------------------------------------------|
|-----999-----9-----999-------------------999-----9-9-----999-------------|
|-000-888-000-8-000-888-000-----------000-888-000-8-8-000-888-000--5b/p0--|
|-000-----000---000-----000--0-5b/p0--000-----000-----000-----000---------|
|-000-----000---000-----000-0-------0-000-----000-----000-----000-0-----0-|

|---------------------------------------------------------------|
|---------------------------------------------------------------|
|--------------9-------------------------------------9----------|
|-0000-00-0000-8-0000-00-0000-----------0000-00-0000-8-0000-000-|
|-0000-00-0000---0000-00-0000--0-5b/p0--0000-00-0000---0000-000-|
|-0000-00-0000---0000-00-0000-0-------0-0000-00-0000---0000-000-|

|-----------------------------------------|
|-----------------------------------------|
|-55555555----------55555555--------------|
|-55555555-33333333-55555555-55555-000000-|
|-33333333-33333333-33333333-55555-000000-|
|----------33333333----------55555-000000-|
                                   ......
CHORUS
|----------------------------------------|
|----------------------------------------|
|-55555555----------55555555-------------| x2 [Muted notes only 2cd time]
|-55555555-33333333-55555555-55555-xx-xx-|
|-33333333-33333333-33333333-55555-xx-xx-|
|----------33333333----------55555-xx-xx-|

VERSE 2
|------------|
|------------|
|------------|
|-0--0--0--0-|
|-0--0--0--0-|
|-0--0--0--0-|
     .  .  .
|---------------------------------|
|---------------------------------|
|-666-----666-----444-----444-----|
|-666-000-666-000-444-000-444-000-|
|-444-000-444-000-222-000-222-000-|
|-----000-----000-----000-----000-|
      ...     ...     ...     ...
|---------------------------------|
|---------------------------------|
|-666-----666-----444-----444-----|
|-666-000-666-000-444-000-444-000-|
|-444-000-444-000-222-000-222-000-|
|-----000-----000-----000-----000-|
      ...     ...     ...
|---------------------------------|
|---------------------------------|
|-666-----666-----444-----444-----|
|-666-000-666-000-444-000-444-000-| x2
|-444-000-444-000-222-000-222-000-|
|-----000-----000-----000-----000-|
      ...     ...     ...     ...

PRE-CHORUS 2

|-------------------|
|-------------------|
|-7--77--7----------|
|-7--77--7--5-5b/p0-|
|-5--55--5--5-5b/p0-|
|-----------5-5b/p0-|

CHORUS
|----------------------------------------|
|----------------------------------------|
|-55555555----------55555555-------------| x2 [Muted notes only 2cd time]
|-55555555-33333333-55555555-55555-xx-xx-|
|-33333333-33333333-33333333-55555-xx-xx-|
|----------33333333----------55555-xx-xx-|

BRIDGE
|----------------------------------------------|
|----------------------------------------------|
|-77777-7-----------77777-7-----------77777777-|
|-77777-7--55555-5--77777-7--55555-5--77777777-|
|-55555-5--55555-5--55555-5--55555-5--55555555-|
|----------55555-5-----------55555-5-----------|

|-----------------------------------------------|    |-------------|
|-----------------------------------------------|    |-------------|
|-----------------------------------------------| x2 |-------------|
|-5555-22-222-5555-22-222-5555-55555-7777-77777-|    |-55-22-55-0~-|
|-5555-22-222-5555-22-222-5555-55555-7777-77777-|    |-55-22-55-0~-|
|-5555-22-222-5555-22-222-5555-55555-7777-77777-|    |-55-22-55-0~-|

[Rhythm guitar does nothing for a good while...]

4:56
|-9---9---9---|
|--10--10--10-| x12 [On the last time only do two]
|-------------|
|-------------|
|-------------|
|-------------|

OUTRO
|-----------------------------|    |------|
|-----------------------------|    |------|
|-7777-7-777777-6666-6-666666-| x4 |-xxxx-|
|-7777-7-777777-6666-6-666666-|    |-xxxx-|
|-5555-5-555555-4444-4-444444-|    |-xxxx-|
|-----------------------------|    |------|

|-----------------------------------------------------|
|--7777-7-777777-6666-6-666666-7777-7-777777-----7-6~-|
|--7777-7-777777-6666-6-666666-7777-7-777777-----7-6~-|
|--5555-5-555555-4444-4-444444-5555-5-555555-xxx-5-4~-|
|--------------------------------------------xxx------|
|--------------------------------------------xxx------|
Добавлено: 29.04.2012
Другие материалы по этой песне:
  • Аккорды и текст

Страница создана 29.04.2012
http://primanota.ru/adept/when-the-sun-gave-up-the-sky-chords.htm
Привет, Гость.
Предлагаем пройти революционный курс по гитаре.
Подарок от PrimaNota.Ru, забирай!