PrimaNota.ru - самый крупный в мире бесплатный архив песенных текстов, аккордов, табулатур и нот


Adelitas Way - Drive - таба, видео

Регистрация Запомнить меня
Войти через:  Facebook Google Twitter Vk Yandex Mail.ru

Adelitas Way - Drive - таба, видео

Печатать
Просмотров: 189
Авторы: Rick DeJesus, Brian Howes

-------------------------------------------------------------------------------
                             Adelitas Way - Drive
-------------------------------------------------------------------------------


Standard Tuning, but original tuning is Half step down

Intro and verse
e|-----------------------------------|
B|--3-------3-------3-------3--------|
G|--4-------4-------4-------4--------|
D|-----------------------------------|
A|-----------------------------------|
E|-----------------------------------|

e|--2-------2-------2-------2--------|
B|--3-------3-------3-------3--------|
G|-----------------------------------|
D|-----------------------------------|
A|-----------------------------------|
E|-----------------------------------|

e|--5-------5-------5-------5--------|
B|--4-------4-------4-------4--------|
G|-----------------------------------|
D|-----------------------------------|
A|-----------------------------------|
E|-----------------------------------|

e|-----------------------------------|
B|--5-------5-------5-------5--------|
G|--4-------4-------4-------4--------|
D|-----------------------------------|
A|-----------------------------------|
E|-----------------------------------|


Chords by  Brady Svedin
|---------------------------------------|
|---7-7-7-7-7-7-7-7----6-6-6-6-6-6-6-6--|
|---7-7-7-7-7-7-7-7----7-7-7-7-7-7-7-7--|
|---5-5-5-5-5-5-5-5----4-4-4-4-4-4-4-4--|
|---------------------------------------|
|---------------------------------------|
Добавлено: 22.05.2015
Другие материалы по этой песне:
  • Аккорды и текст

Страница создана 22.05.2015
http://primanota.ru/adelitas-way/drive-chords.htm
Привет, Гость.
Предлагаем пройти революционный курс по гитаре.
Подарок от PrimaNota.Ru, забирай!