PrimaNota.ru - самый крупный в мире бесплатный архив песенных текстов, аккордов, табулатур и нот


Accept - The King - аккорды и текст, таба, видео

Регистрация Запомнить меня
Войти через:  Facebook Google Twitter Vk Yandex Mail.ru

Accept - The King - аккорды и текст, таба, видео

Печатать
Просмотров: 951
The King
Accept
Corrected by: Ольга  olga@ptv-centre.ru

He was a leader of a small gang
Commiting crimes each day
But time has changed where he was proud
It's a far away

He took living easy, his bad reputation
Oh it was known all around
But he didn't care no, he made dirty money
Now he is down and out

Thought he knew the tricks of life
Prowling in the dark
Now he's left by all his friends
'Cause he lived apart, of them
He was a leader, malicious and violent
His fame is covered with blood
Now he's just a number, he lost all his power
The king has lost his face

Down down down, though the king lost his crown
Caught and sentenced, he was guilty
Down down down, though the king lost his crown
It's too late for to hurry,
Late for to hurry


Accept - The King
True beauty from Accept! A ballad in D-minor. The two first notes in section 2
Is sweeped. The should be before the actual
Bar starts

E
1--------1---------1--0--------0---------0--0--------0---------0--------------5-
-
H
------3---------3-----------3---------3-----------3---------3--------------5----
-
G
-
-
-
---2---------2-----------3---------3-----------1---------1--------------6-------
-
D
0---------------------0---------------------0------------------------7----------
-
A
------------------------------------------------------------------0-------------
-
E
--------------------------------------------------------------------------------
-


E
--5--3----------------5--3------------------------------------------------------
--
H
--------6--5--5-6-3---------6--5--6--5--3--1------------------------------------
--
G
-3-------------------3----------------------------------------------------------
--
D
3-------------------3-----------------------------------------------------------
--
A
--------------------------------------------------------------------------------
--
E
--------------------------------------------------------------------------------
--
Добавлено: 20.05.2012
Другие материалы по этой песне:

Страница создана 31.03.2012
http://primanota.ru/accept/the-king-chords.htm
Привет, Гость.
Предлагаем пройти революционный курс по гитаре.
Подарок от PrimaNota.Ru, забирай!