PrimaNota.ru - самый крупный в мире бесплатный архив песенных текстов, аккордов, табулатур и нот


Accept - Blood Of The Nations - текст песни, таба, видео

Регистрация Запомнить меня
Войти через:  Facebook Google Twitter Vk Yandex Mail.ru

Accept - Blood Of The Nations - текст песни, таба, видео

Печатать
Просмотров: 503
It's only intro and verse. I'm working on chorus.

E|--------------------------------------------------------|
B|--------------------------------------------------------|
G|--------------------------------------------------------|
D|--------------------------------------------------------|
A|-7--7-----2-3\2---------2-3/2-3------2-3--3/2-----------|
E|-5--5--3-5------5---3-5----------3-5----------3---------|
                                                              
E|--------------------------------------------------------|
B|--------------------------------------------------------|
G|--------------------------------------------------------|
D|------------------------5-----5-------------------------|
A|-7--7-----2-3/2---------3-3-3-2-2-2-5-----7-------------|
E|-5--5--3-5------5---3-5-------------3-3-3-5-------------| 

E|--------------------------------------------------------|
B|--------------------------------------------------------|
G|--------------------------------------------------------|
D|--------------------------------------------------------|
A|-7--7-----2-3\2---------2-3/2-3------2-3--3/2-----------|
E|-5--5--3-5------5---3-5----------3-5----------3---------|
                                                              
E|--------------------------------------------------------|
B|--------------------------------------------------------|
G|--------------------------------------------------------|
D|------------------------5-----5-------------------------|
A|-7--7-----2-3/2---------3-3-3-2-2-2-5-----7-------------|
E|-5--5--3-5------5---3-5-------------3-3-3-5-------------| 

E|--------------------------------------------------------|
B|--------------------------------------------------------|
G|--------------------------------------------------------|
D|--------------------------------------------------------|
A|-9--9-----4-5/4--------4-5/4-5-----4-5--5/4-------------|
E|-7--7--5-7------7---5-7---------5-7---------5-----------| 

E|--------------------------------------------------------|
B|--------------------------------------------------------|
G|--------------------------------------------------------|
D|--------------------------------------------3-----------|
A|-9--9-----4-5/4--------4-5/4-5-----4-5--5/4-3-----------|
E|-7--7--5-7------7---5-7---------5-7---------1-----------| 

E|--------------------------------------------------------|
B|--------------------------------------------------------|
G|--------------------------------------------------------|
D|--------------------------------------------------------|
A|-9--9-----4-5/4--------4-5/4-5-----4-5--5/4-------------|
E|-7--7--5-7------7---5-7---------5-7---------5-----------| 

E|--------------------------------------------------------|
B|--------------------------------------------------------|
G|--------------------------------------------------------|
D|-------------------------4-----3------------------------|
A|-9--9-----4-5/4--------4-2-2-2-1-1-1-4-----6------------|
E|-7--7--5-7------7---5-7--------------2-2-2-4------------| 

E|--------------------------------------------------------|
B|--------------------------------------------------------|
G|--------------------------------------------------------|
D|-4------4-----4----5--------2---------------------------|     8x
A|-4------4-----4----5--------2---------------------------|
E|-2--2-2-2-----2--2-3--3-3-3-0---------------------------| 
Добавлено: 12.05.2012
Другие материалы по этой песне:

Страница создана 12.05.2012
http://primanota.ru/accept/blood-of-the-nations-chords.htm
Привет, Гость.
Предлагаем пройти революционный курс по гитаре.
Подарок от PrimaNota.Ru, забирай!