PrimaNota.ru - самый крупный в мире бесплатный архив песенных текстов, аккордов, табулатур и нот


Accept - Princess of the Dawn - аккорды и текст, таба, бас-таба, видео

Регистрация Запомнить меня
Войти через:  Facebook Google Twitter Vk Yandex Mail.ru

Accept - Princess of the Dawn - аккорды и текст, таба, бас-таба, видео

Печатать
Просмотров: 1066
Уроки эстрадного вокала в Санкт-Петербурге
Авторы музыки: Deaffy
Авторы текста: Wolf Hoffmann, Peter Baltes, Robert A. Smith-Diesel, Stefan Kaufmann, Udo Dirkschneider
Princess of the Dawn
Accept
[E ------------------------------------------------------------------------------------------
H 3-----3---------1-----3---------3-----3---------------------------------------------------
G 2-----3---------0-----2---------2-----3-------5-5---7-7-----------------------------------
D --0-0---0-0-0-0---0-0---0-0-0-0---0-0---0-0-0-5-5---7-7-----------------------------------
A ----------------------------------------------3-3---5-5-----------------------------------
E ------------------------------------------------------------------------------------------]
The outro melody:
[E -----------------------------------6---8-6-5------------------------------------------------
H ----------6-----6-8---6-8-10----10---8-------8-6-5-6---5------------------------------------
G --7-6-7-9---7-9-----9------------------------------7---6-7--------------------------------
D 7-----------------------------------------------------------------------------------------
A ------------------------------------------------------------------------------------------
E ------------------------------------------------------------------------------------------]
Добавлено: 04.01.2014
Другие материалы по этой песне:

Страница создана 09.03.2012
http://primanota.ru/accept/princess-of-the-dawn-chords.htm
Привет, Гость.
Предлагаем пройти революционный курс по гитаре.
Подарок от PrimaNota.Ru, забирай!