PrimaNota.ru - самый крупный в мире бесплатный архив песенных текстов, аккордов, табулатур и нот


Accept - Screaming For A Love Bite - текст песни, таба, бас-таба, видео

Регистрация Запомнить меня
Войти через:  Facebook Google Twitter Vk Yandex Mail.ru

Accept - Screaming For A Love Bite - текст песни, таба, бас-таба, видео

Печатать
Просмотров: 378
Уроки эстрадного вокала в Санкт-Петербурге
                                                                       *2
||------------------------------|-----------|-------------|--------------||
||------------------------------|-----------|-------------|--------------||
||------------------------------|-----------|-------------|--------------||
||------------------------------|-----------|-------------|--------------||
||-------11--11-11--9-----9-----|--9--------|----7--7-7-7-|--7-----------||
||-------9---9--9---7-----7-----|--7--------|----4--4-4-5-|--5-----------||

|--------------------------------|
|--------------------------------|
|--------------------------------|
|--------------------------------|
|-------11--11-11--9-----9-------|
|-------9---9--9---7-----7-------|

|-------------------|-------------------|-------------------|
|-------------------|-------------------|-------------------|
|-------------------|-------------------|-------------------|
|-------------------|-------------------|-------------------|
|-------7--7-7-7----|---7---------------|-------------------|
|-------4--4-4-5----|---5---5-5-5-5-----|--5-5-5-5-5-5-5-5--|
Добавлено: 10.05.2012
Другие материалы по этой песне:

Страница создана 10.03.2012
http://primanota.ru/accept/screaming-for-a-love-bite-chords.htm
Привет, Гость.
Предлагаем пройти революционный курс по гитаре.
Подарок от PrimaNota.Ru, забирай!