PrimaNota.ru - самый крупный в мире бесплатный архив песенных текстов, аккордов, табулатур и нот


Accept - Shake Your Heads - аккорды и текст, таба, видео

Регистрация Запомнить меня
Войти через:  Facebook Google Twitter Vk Yandex Mail.ru

Accept - Shake Your Heads - аккорды и текст, таба, видео

Печатать
Просмотров: 192
Авторы музыки: Wolf Hoffmann, Peter Baltes, Stefan Kaufmann, Udo Dirkschneider
Авторы текста: Wolf Hoffmann, Peter Baltes, Stefan Kaufmann, Udo Dirkschneider
Shake Your Heads
Accept
		   Shake your heads


                                                                          Accept
Solo guitar
Tabbed by Shendrik Evgeny



Intro:
E||---------------------|----------------------|----------------------|
B||---------------------|----------------------|----------------------|
G||---------------------|----------------------|----------------------|
D||--7-9-----------7----|--7-9-----------12----|--12-7-----------7----|
A||--5-7-----------5----|--5-7-----------10----|--10-5-----------5----|
E||---------------------|----------------------|----------------------|



---------------------|---------------------|----------------------|
---------------------|---------------------|----------------------|
---------------------|---------------------|----------------------|
--7-9-----------7----|--7-9-----------7----|--7-9-----------12----|
--5-7-----------5----|--5-7-----------5----|--5-7-----------10----|
---------------------|---------------------|----------------------|



----------------------|---------------------|---------------------|
----------------------|---------------------|---------------------|
----------------------|---------------------|---------------------|
--12-7-----------7----|--7-9-----------7----|--7-9-----------7----|
--10-5-----------5----|--5-7-----------5----|--5-7-----------5----|
----------------------|---------------------|---------------------|



----------------------|----------------------|---------------------|
----------------------|----------------------|---------------------|
----------------------|----------------------|---------------------|
--7-9-----------12----|--12-7-----------7----|--7-9-----------7----|
--5-7-----------10----|--10-5-----------5----|--5-7-----------5----|
----------------------|----------------------|---------------------|



---------------------|----------------------|----------------------|
---------------------|----------------------|----------------------|
---------------------|----------------------|----------------------|
--7-9-----------7----|--7-9-----------12----|--12-7-----------7----|
--5-7-----------5----|--5-7-----------10----|--10-5-----------5----|
---------------------|----------------------|----------------------|


                        Verse:
-----------------------|----------------------|----------------------|
-----------------------|----------------------|----------------------|
-----------------------|----------------------|----------------------|
--7-9-----------7------|--9------------7--x-x-|--9------------7--x-x-|
--5-7-----------5--5-5-|--7------------5--5-5-|--7------------5--5-5-|
-----------------------|----------------------|----------------------|



---------------------|-------------------|----------------------|
---------------------|-------------------|----------------------|
---------------------|-------------------|----------------------|
--9------------12/---|--7----------------|--9------------7--x-x-|
--7------------10/---|--5----------------|--7------------5--5-5-|
---------------------|-------------------|----------------------|



----------------------|---------------------|-------------------|
----------------------|---------------------|-------------------|
----------------------|---------------------|-------------------|
--9------------7--x-x-|--9------------12/---|--7----------------|
--7------------5--5-5-|--7------------10/---|--5----------------|
----------------------|---------------------|-------------------|


Pre-chorus:
----------------------------|----------------------------|--------------------|
----------------------------|----------------------------|--------------------|
----------------------------|----------------------------|--------------------|
----------------------------|----------------------------|--------------------|
--7--9-9-9---x-7--9-9-9---x-|--7--9-9-9--x-9-7--9-9-9----|--10----------------|
--5--7-7-7---x-5--7-7-7---x-|--5--7-7-7--x-7-5--7-7-7----|--8-----------------|


                          Chorus:
-------------------------|--------------------|--------------------|
-------------------------|--------------------|--------------------|
-------------------------|--------------------|--------------------|
-------------------------|--------------------|--------------------|
--12--------x-x--x-x-x---|--7--------5--------|--5--------7--------|
--10--------x-x--x-x-x---|--5--------3--------|--3--------5--------|



--------------------|-----------------------|--------------------|
--------------------|-----------------------|--------------------|
--------------------|-----------------------|--------------------|
--------------------|--5----7-------9--9/---|--------------------|
--7--------5--------|--3----5----7--7--7/---|--7--------5--------|
--5--------3--------|------------5----------|--5--------3--------|


                                                       Interlude:
--------------------|--------------------|------------|---------------------|
--------------------|--------------------|------------|---------------------|
--------------------|--------------------|------------|---------------------|
--------------------|--------------------|--5----7----|---------------------|
--5--------7--------|--7--------5--------|--3----5----|--7-9-----------7----|
--3--------5--------|--5--------3--------|------------|--5-7-----------5----|



----------------------|----------------------|---------------------|
----------------------|----------------------|---------------------|
----------------------|----------------------|---------------------|
----------------------|----------------------|---------------------|
--7-9-----------12----|--12-7-----------7----|--7-9-----------7----|
--5-7-----------10----|--10-5-----------5----|--5-7-----------5----|


2 Verse:
---------------------|----------------------|----------------------|
---------------------|----------------------|----------------------|
---------------------|----------------------|----------------------|
---------------------|----------------------|----------------------|
--7-9-----------7----|--7-9-----------12----|--12-7-----------7----|
--5-7-----------5----|--5-7-----------10----|--10-5-----------5----|



---------------------|----------------------|----------------------|
---------------------|----------------------|----------------------|
---------------------|----------------------|----------------------|
----------------7----|--9------------7--x-x-|--9------------7--x-x-|
--7-9-----------5----|--7------------5--5-5-|--7------------5--5-5-|
--5-7----------------|----------------------|----------------------|


                                          Pre-chorus:
---------------------|-------------------|----------------------------|
---------------------|-------------------|----------------------------|
---------------------|-------------------|----------------------------|
--9------------12/---|--7----------------|----------------------------|
--7------------10/---|--5----------------|--7--9-9-9---x-7--9-9-9---x-|
---------------------|-------------------|--5--7-7-7---x-5--7-7-7---x-|



----------------------------|--------------------|-------------------------|
----------------------------|--------------------|-------------------------|
----------------------------|--------------------|-------------------------|
----------------------------|--------------------|-------------------------|
--7--9-9-9--x-9-7--9-9-9----|--10----------------|--12--------x-x--x-x-x---|
--5--7-7-7--x-7-5--7-7-7----|--8-----------------|--10--------x-x--x-x-x---|


Chorus:
--------------------|--------------------|--------------------|
--------------------|--------------------|--------------------|
--------------------|--------------------|--------------------|
--------------------|--------------------|--------------------|
--7--------5--------|--5--------7--------|--7--------5--------|
--5--------3--------|--3--------5--------|--5--------3--------|



-----------------------|--------------------|--------------------|
-----------------------|--------------------|--------------------|
-----------------------|--------------------|--------------------|
--5----7-------9--9/---|--------------------|--------------------|
--3----5----7--7--7/---|--7--------5--------|--5--------7--------|
------------5----------|--5--------3--------|--3--------5--------|


                                  Pre-solo:
--------------------|------------|---------------------|---------------------|
--------------------|------------|---------------------|---------------------|
--------------------|------------|---------------------|---------------------|
--------------------|--5----7----|---------------------|---------------------|
--7--------5--------|--3----5----|--7-9-----------9----|--9-12---------------|
--5--------3--------|------------|--5-7-----------7----|--7-10---------------|


                        Solo:         E  F# G     A
-----------------------|-----------------------|---------------------|
-----------------------|-----------------------|---------------------|
-----------------------|-----------------------|---------------------|
-----------------------|--------------2--4--5--|--7~---------5--4b---|
--7-7-------9----7--5--|--2-2------------------|---------------------|
--5-5-------7----5--3--|--0-0------------------|---------------------|


  C                    B         B     A        E            E   F#  G
--------------------|------------------------|---------------12--14--15--|
--------------------|------------------------|---------15b---------------|
--------------------|------------------------|---------------------------|
--4~----------------|---------------------1--|---------------------------|
---------------2b---|--2------5--3--2--0-----|---------------------------|
--------------------|------------------------|--0------------------------|


  A                          C
--17~---------17--19--20--|--20~---------19--17------|
--------------------------|----------------------20~-|
--------------------------|--------------------------|
--------------------------|--------------------------|
--------------------------|--------------------------|
--------------------------|--------------------------|


  B           B       A          E
--------------17--19--20--22--|--24~---------------|
--19------20------------------|--------------------|
------------------------------|--------------------|
------------------------------|--------------------|
------------------------------|--------------------|
------------------------------|--------------------|


  A               D                 E                    A
----------------------------------|------------------------------------------|
----------------------------------|------------------------------------------|
----2-5h2-4h5-4h2---7-10h7-9h10~--|----9-12h9-11h12-11h9----12-15h12-14h15~--|
--2---------------7---------------|--9-------------------12------------------|
----------------------------------|------------------------------------------|
----------------------------------|------------------------------------------|


  B                  E
----7-10h7-9h10-9h7----12-15h12-14h15~--|
--7-----------------12------------------|
----------------------------------------|
----------------------------------------|
----------------------------------------|
----------------------------------------|


  F#                      B                  Chorus:
-----14-17-14-16-17-15-14-15-14----14-17b---|--------------------|
--14----------------------------15----------|--------------------|
--------------------------------------------|--------------------|
--------------------------------------------|--------------------|
--------------------------------------------|--7--------5--------|
--------------------------------------------|--5--------3--------|



--------------------|--------------------|-----------------------|
--------------------|--------------------|-----------------------|
--------------------|--------------------|-----------------------|
--------------------|--------------------|--5----7-------9--9/---|
--5--------7--------|--7--------5--------|--3----5----7--7--7/---|
--3--------5--------|--5--------3--------|------------5----------|



--------------------|--------------------|--------------------|
--------------------|--------------------|--------------------|
--------------------|--------------------|--------------------|
--------------------|--------------------|--------------------|
--7--------5--------|--5--------7--------|--7--------5--------|
--5--------3--------|--3--------5--------|--5--------3--------|


                        Ending chorus:
-----------------------|---------------------|-----------------------|
-----------------------|---------------------|-----------------------|
-----------------------|---------------------|-----------------------|
--5----7-------9--9/---|-------5-------------|-----------------------|
--3----5----7--7--7/---|--7----3----5--------|--5----7--9--7--7------|
------------5----------|--5---------3--------|--3----5--7--5--5------|



---------------------|-----------------------|---------------------|
---------------------|-----------------------|---------------------|
---------------------|-----------------------|---------------------|
-------5-------------|--5----7-------9--9/---|-------5-------------|
--7----3----5--------|--3----5----7--7--7/---|--7----3----5--------|
--5---------3--------|------------5----------|--5---------3--------|



-----------------------|---------------------|-----------------------||
-----------------------|---------------------|-----------------------||
-----------------------|---------------------|-----------------------||
-----------------------|-------5-------------|--5----7-------9--9/---||
--5----7--9--7--7------|--7----3----5--------|--3----5----7--7--7/---||
--3----5--7--5--5------|--5---------3--------|------------5----------||     
Добавлено: 20.06.2013
Другие материалы по этой песне:

Страница создана 02.03.2012
http://primanota.ru/accept/shake-your-heads-chords.htm
Привет, Гость.
Предлагаем пройти революционный курс по гитаре.
Подарок от PrimaNota.Ru, забирай!